Printed from RockinTabs - www.rockintabs.com

#----------------------------------PLEASE NOTE---------------------------------#
#This file is the author's own work and represents their interpretation of the #
#song. You may only use this file for private study, scholarship, or research. #
#------------------------------------------------------------------------------#

pm= plam mute
* harm
x heavy plam mute




1 paper cut

intro gtr 1

riff a

-10----12----13----12----------
----10----10----10----10-------
-------------------------------
------------------------------- x 4
-------------------------------
-------------------------------

w/riff a gtr 1 (x 8)

gtr 2 rhy fig 1 

-----------------------------------------------------------
-----------------------------------------------------------
------------------10------9-------5---5---5----5--5--5--5--
------0---0---0---8-------7-------5---5---5----5--5--5--5--
------0---0---0---8---0---7---0---3---3---3----3--3--3--3-- x 3
------0---0---0---8---0---7---0---3---3---3----3--3--3--3--

gtr 2
 rhy fill 1

----------------------------------------------------------
----------------------------------------------------------
-----------------10-------9--------5--5--5----5-----------
------0---0---0---8-------7--------5--5--5----5-----------
------0---0---0---8---0---7---0----3--3--3----3--1--1--3--
------0---0---0---8---0---7---0----3--3--3----3--1--1--3--


verse 1

gtr1 (tracet)
gtr 2 riff b

---------------------------------------------------
---------------------------------------------------
---------------------------------------------------
---------------------------------------------------
-------------------1-----1--1---1-----0---0--------  x3
--0---0----0---------------------------------------

pm---------------------------------------------

then play 

riff c (gtr 2)
----------------------------------------------------------------
----------------------------------------------------------------
----------------------------------------------------------------
----------------------------------------------------------------
------------------1-----1--1---1-----0---0----------------------
--0---0----0----------------------------------------1---1----3--


then play riff b
riff c
riff b x2


chours 1

gtr 1 plays riff x8
gtr 2 plays rhy fig 1 3 1/2 times

verse 2
gtr 1 (tracet) 
gtr 2
riff c x 4
riff b
riff c x 2
riff b

chours 2

same as chours 1 but repeat 2 times

bridge

gtr 1 riff a

gtr 2 plays


------------------------------------------------
------------------------------------------------
------------------------------------------------
------------------------------------------------
------------------------------------------------ x 3
--0--0--0---------------------------1--1--3-----


gtr 1



------------------------
------------------------
------------------------
------------------------
------------------------ x 2
-0--0--0--0--0--0--0--0-
pm------------------------
  
(gradually lighten the palm mute)

i've tabed this bit in 2 parts



chours 3
  gtr 1 riff d (part 1)
(sun goes down)

--12----12--------------------------------12----12---------------------------
-----10------10--13--10--13--10--------------10------10--13--10--13--10------
-----------------------------------------------------------------------------
-----------------------------------------------------------------------------
----------------------------------------------------------------------------- 
-----------------------------------------------------------------------------
-

gtr 2 (part a)

--------------------------------------------------------------------------
--------------------------------------------------------------------------
--10-10-10-------10--10--10--10--------10-12-12-------12--12--12\-7-------
--10-10-10-------10--10--10--10--------10-12-12-------12--12--12\-7-------
---8--8--8--------8----8----8----8-----8--10-10-------10--10--10\-5-------
---8--8--8--------8----8----8----8-----8--10-10-------10--10--10\-5-------


gtr 1 riff d (part 2)

-10----12----13----12---------10----12----13----12--------
----10----10----10----10---------10----10----10----10-----
------------------------------------------------------------------
------------------------------------------------------------------
------------------------------------------------------------------
------------------------------------------------------------------

gtr 2 (part b)

----------------------------------------------------------
----------------------------------------------------------
-7--7--7-----7--7--7--7-------7--7--7--7--7--7--7/-10-----
-7--7--7-----7--7--7--7-------7--7--7--7--7--7--7/-10-----
-5--5--5-----5--5--5--5-------5--5--5--5--5--5--5/-8-------
-5--5--5-----5--5--5--5-------5--5--5--5--5--5--5/-8-------


low down of above

gtr 1 play riff d(part 1 and 2 (2gether) 4 times
gtr 2 play riff d(part a and b (2gether) 4 times 

outro chours

gtr 1 riff d(prt 1+2) 5 times
gtr 2 riff d(prt a+b) 5 times


from here on gtr 1 plays riff d prt 1+2 till the end
then gtr 2 changes 2


--------------------------------------------------------------------------------
--------------------------------------------------------------------------------
--10--10--10--------10---10---10---10--------10-12-12-------12--12--12--12------
--10--10--10--------10---10---10---10--------10-12-12-------12--12--12--12------
---8---8---8---------8----8----8----8--------8--10-10-------10--10--10--10------
---8---8---8---------8----8----8----8--------8--10-10-------10--10--10--10------

then back to part a+b

then for final bar changes to


--------------------------------------
--------------------------------------
-7--7--7-----7------------------------
-7--7--7-----7--1--1--3-------0--0--0-
-5--5--5-----5--1--1--3-------0--0--0-
-5--5--5-----5--1--1--3-------0--0--0-
                                  pm------
gtr 1 does

                                        *
--------------------------------------12
----------------------------------------
----------------------------------------
----------------------------------------
----------------------------------------
----------------------------------------





Printed from RockinTabs - www.rockintabs.com