Printed from RockinTabs - www.rockintabs.com

#----------------------------------PLEASE NOTE---------------------------------#
#This file is the author's own work and represents their interpretation of the #
#song. You may only use this file for private study, scholarship, or research. #
#------------------------------------------------------------------------------#

--Mary Janes Last Dance-----
---Tom Petty-----

E-------------------------3----------3p2---------------|
B---------1--------------0----------3--------------1---|
G---------0h2-----------0----------2--------------2----|
D---------0h2-----------0----0-0------------------2----|
A---0-0------------------2------------------0-0--------|
E------------------3-3---3-----------------------------|

*B full bend   *b half bend

 Guitar 1 Riff.


E-----------------------------------------------------------|
B----5b5B-p3-----3---5B-----5b5B-p3-----3-------------------|
G----5b5B-p3-----3---5B-----5b5B-p3-----3-------------------|
D-----------------5---------------------------5-----5~~~~---|
A-----------------------------------------------------------|
E-----------------------------------------------------------|

Guitar 2 Fill

E---0-0-0-0-0-0-0-0--0--0--0--0-12-12-0--0--0--0--0-0-0-0-0-0-0-0-------------|
B---1-1/3-3/5-5/8-8/10-10/13-13-13-13-13-13/10-10/8-8/5-5/3-3/1-1--3B3P1------|
G--------------------------------------------------------------------------2~-|
D-----------------------------------------------------------------------------|
A-----------------------------------------------------------------------------|
E-----------------------------------------------------------------------------|


Printed from RockinTabs - www.rockintabs.com