Rockin Tabs Home

 :: Home > Tabs > B > Black Sabbath > Am I Going Insane

Black Sabbath - Am I Going Insane


This tab has not yet been rated for accuracy.Sorry, but you must be logged in to rate this tab so we can tell which songs you've already voted on, which will help prevent cheating.
Click here to log-in, or you can click here to register.
(Registration is free)


Click here for a plain text version of this song (for better printing)

Add this tab to your list of favorite tabs




#----------------------------------PLEASE NOTE---------------------------------#
#This file is the author's own work and represents their interpretation of the #
#song. You may only use this file for private study, scholarship, or research. #
#------------------------------------------------------------------------------#


Song:  Am I Going Insane
Band:  Black Sabbath
Tabbed by: Jeff Sepko (Metal4480@aol.com)


Riff A: Guitar 1
|-----------------------------|------------------------------------|
|-----------------------------|------------------------------------|
|---4----6----7b-(7)\-6\---4--|--2----4----6b-(6)\-4----2----------|
|-----------------------------|------------------------------------|
|-----------------------------|------------------------------------|
|-----------------------------|------------------------------------|

Guitar 2 & 3
|-----------------------------|------------------------------------|
|-----------------------------|------------------------------------|
|-----------------------------|------------------------------------|
|-----%-------------%---------|-----%---------------%--------4\0---|
|-----------------------------|------------------------------------|
|-----------------------------|------------------------------------|

Riff B:  Guitar 2
|-----------------------------|------------------------------------|
|-----------------------------|------------------------------------|
|---1--------2b----(2)----1---|--2---------------%---------------4-|
|-----------------------------|------------------------------------|
|-----------------------------|------------------------------------|
|-----------------------------|------------------------------------|
Guitar 3
|-----------------------------|------------------------------------|
|-----------------------------|------------------------------------|
|-----------------------------|------------------------------------|
|---2--------4b----(4)----2---|--0-------------------------------0-|
|-----------------------------|------------------------------------|
|-----------------------------|------------------------------------|

Guitar 1 (repeat once)
|-----------------------------|------------------------------------|
|-----------------------------|------------------------------------|
|-----------------------------|------------------------------------|
|---4-----------%-------------|-----%----------------%-------------|
|-----------------------------|------------------------------------|
|-----------------------------|------------------------------------|


Guitar 2 (repeat once)
|-----------------------------|------------------------------------|
|-----------------------------|------------------------------------|
|---1-----------%-------------|-----2---------------4b----(4)----2-|
|-----------------------------|------------------------------------|
|-----------------------------|------------------------------------|
|-----------------------------|------------------------------------|
Guitar 3 (repeat once)
|-----------------------------|------------------------------------|
|-----------------------------|------------------------------------|
|-----------------------------|------------------------------------|
|---2----------------------2--|--3------------------5b----(5)----3-|
|-----------------------------|------------------------------------|
|-----------------------------|------------------------------------|

Riff C:  Guitar 1
|-----------------------------|------------------------------------|
|-----------------------------|------------------------------------|
|---1-------------------------|--2-------------------------------2-|
|-----------------------------|------------------------------------|
|-----------------------------|------------------------------------|
|-----------------------------|------------------------------------|

|-----------------------------|------------------------------------|
|-----------------------------|------------------------------------|
|-----------------------------|------------------------------------|
|---2-------------------------|--0-------------------------------0-|
|-------------------------2---|------------------------------------|
|-----------------------------|------------------------------------|

|-----------------------------|------------------------------------|
|-----------------------------|------------------------------------|
|---1----------------------1--|--2----2-------------4b----(4)----2-|
|-----------------------------|------------------------------------|
|-----------------------------|------------------------------------|
|-----------------------------|------------------------------------|

|-----------------------------|------------------------------------|
|-----------------------------|------------------------------------|
|-----------------------------|------------------------------------|
|---2----------------------2--|--3----3-------------5b----(5)----3-|
|-----------------------------|------------------------------------|
|-----------------------------|------------------------------------|

|-----------------------------|------------------------------------|
|-----------------------------|------------------------------------|
|---1-------------------------|--2---------------------------------|
|-----------------------------|------------------------------------|
|-----------------------------|------------------------------------|
|-----------------------------|------------------------------------|

|-----------------------------|------------------------------------|
|-----------------------------|------------------------------------|
|---2-------------------------|--0---------------------------------|
|-----------------------------|------------------------------------|
|-----------------------------|------------------------------------|
|-----------------------------|------------------------------------|

Riff D:  Guitar 3
|-----------------------------|------------------------------------|
|-----------------------------|------------------------------------|
|-----------------------------|------------------------------------|
|-----------------------------|--0---------------------------------|
|---3------3--------3---------|------------------------------------|
|-----------------------------|------------------------------------|

Guitar 2
|-----------------------------|------------------------------------|
|-----------------------------|------------------------------------|
|---1---------------------(2)-|--1---------------------------------|
|-----------------------------|------------------------------------|
|-----------------------------|------------------------------------|
|-----------------------------|------------------------------------|

|-----------------------------|------------------------------------|
|-----------------------------|------------------------------------|
|-----------------------------|------------------------------------|
|---2----------------------0--|--2---------------------------------|
|-----------------------------|------------------------------------|
|-----------------------------|------------------------------------|

Guitar 3
|-----------------------------|------------------------------------|
|-----------------------------|------------------------------------|
|-----------------------------|------------------------------------|
|-----------------------------|--0-------0------------0----0----0--|
|---3-------3-------3-------3-|------------------------------------|
|-----------------------------|------------------------------------|

Riff E: Guitar 2 (repeat once)
|-----------------------------|------------------------------------|
|-----------------------------|------------------------------------|
|---1------(2)----1-----------|------------------------------------|
|-----------------------------|------------------------------------|
|-----------------------------|------------------------------------|
|-----------------------------|------------------------------------|

Repeat Once
|-----------------------------|------------------------------------|
|----------2------------------|------------------------------------|
|---1-----------2------0----2-|--2---------------------------------|
|-----------------------------|------------------------------------|
|-----------------------------|------------------------------------|
|-----------------------------|------------------------------------|

|-----------------------------|------------------------------------|
|-----------------------------|------------------------------------|
|--------------2--------------|------------------------------------|
|---2-------------------------|------------------------------------|
|-----------------------------|------------------------------------|
|-----------------------------|------------------------------------|

Guitar 1
|-----------------------------|------------------------------------|
|-----------------------------|------------------------------------|
|---1-----------------------2-|--4p-2h-4p-2--2--1----2-------------|
|-----------------------------|------------------------------------|
|-----------------------------|------------------------------------|
|-----------------------------|------------------------------------|

Guitar 2
|-----------------------------|------------------------------------|
|-----------------------------|------------------------------------|
|-----------------------------|------------------------------------|
|---2-----------------------4-|--6p-4h-6p-4-4-2--------------------|
|-----------------------------|--------------------4b--------------|
|-----------------------------|------------------------------------|

Guitar 3
|-----------------------------|------------------------------------|
|-----------------------------|------------------------------------|
|-----------------------------|------------------------------------|
|---2-------------------------|--3---------------------------------|
|-----------------------------|------------------------------------|
|-----------------------------|------------------------------------|

|-----------------------------|------------------------------------|
|---2-------------------------|------------------------------------|
|--------4----2----1----------|--1----2----4----1h-2p-1------------|
|-----------------------------|----------------------------4----2--|
|-----------------------------|------------------------------------|
|-----------------------------|------------------------------------|

|-----------------------------|------------------------------------|
|-----------------------------|------------------------------------|
|-----------------------------|------------------------------------|
|-----------------------------|------------------------------------|
|---(3)-----------------------|--2---------------------------------|
|-----------------------------|------------------------------------|

|-----------------------------|------------------------------------|
|---------------2-------------|------------------------------------|
|---1b--1b-----------4----1---|--1-----------------4----2----1-----|
|-----------------------------|----------------------------------4-|
|-----------------------------|--------4b----4b--------------------|
|-----------------------------|------------------------------------|

|-----------------------------|------------------------------------|
|-----------------------------|------------------------------------|
|-----------------------------|------------------------------------|
|---0-------------------------|--2---------------------------------|
|-----------------------------|------------------------------------|
|-----------------------------|------------------------------------|

|-----------------------------|------------------------------------|
|-------------------------5---|--3--------3h-6----3----2-----------|
|---1------1----2----4--------|------------------------------------|
|-----------------------------|------------------------------------|
|-----------------------------|------------------------------------|
|-----------------------------|------------------------------------|

|-----------------------------|------------------------------------|
|-----------------------------|------------------------------------|
|--------------------1----4---|--2--------2h-4----2----1-----------|
|---2------2----4-------------|------------------------------------|
|-----------------------------|------------------------------------|
|-----------------------------|------------------------------------|

|-----------------------------|------------------------------------|
|-----------------------------|------------------------------------|
|-----------------------------|------------------------------------|
|---2-------------------------|--3---------------------------------|
|-----------------------------|------------------------------------|
|-----------------------------|------------------------------------|

|-----------------------------|------------------------------------|
|-----------------------------|--3b------3-------------------------|
|---1----------1----2----4----|----------------------------------1-|
|-----------------------------|---------------2-------2----4-------|
|-----------------------------|------------------------------------|
|-----------------------------|------------------------------------|

|-----------------------------|------------------------------------|
|-----------------------------|------------------------------------|
|---2b----2-------------------|------------------------------------|
|----------------2------------|--0---------------------------------|
|-----------------------------|------------------------------------|
|-----------------------------|------------------------------------|

|-----------------------------|------------------------------------|
|---3-----%-------------7-----|--8----7----8---------7----8--------|
|------------------9----------|-----------------9------------------|
|-----------------------------|------------------------------------|
|-----------------------------|------------------------------------|
|-----------------------------|------------------------------------|

|-----------------------------|------------------------------------|
|-----------------------------|------------------------------------|
|---2-------------------------|--0--------0------------------------|
|-----------------------------|-----------2------------------------|
|-----------------------------|-----------3------------------------|
|-----------------------------|------------------------------------|

|-----------------------------|------------------------------------|
|---12----10h-12p-10--8----10-|--8h-10p-8--7----8----7---------7---|
|-----------------------------|---------------------------9--------|
|-----------------------------|------------------------------------|
|-----------------------------|------------------------------------|
|-----------------------------|------------------------------------|

|-----------------------------|------------------------------------|
|-----------------------------|------------------------------------|
|---7---------9---------------|---%------------------------%-------|
|--------7--------------------|------------------------------------|
|-----------------------------|------------------------------------|
|-----------------------------|------------------------------------|

|-----------------------------|------------------------------------|
|-----------------------------|------------------------------------|
|---7-------------------------|--2----5---------%------------%-----|
|---5-------------------------|--4----7----------------------------|
|---5-------------------------|--4----7----------------------------|
|-----------------------------|------------------------------------|

|-----------------------------|------------------------------------|
|-----------------------------|------------------------------------|
|---4-------2-----------------|--2----4----------------------------|
|---6-------4-----------------|--4----6----------------------------|
|---6-------4-----------------|--4----6----------------------------|
|-----------------------------|------------------------------------|



Comments about this tab

No comments/corrections found. Add your own



2005 ZMG, Inc.- All Right Reserved - Privacy Statement