Rockin Tabs Home

 :: Home > Tabs > B > Bon Jovi > Save the World

Bon Jovi - Save the World


This tab has not yet been rated for accuracy.Sorry, but you must be logged in to rate this tab so we can tell which songs you've already voted on, which will help prevent cheating.
Click here to log-in, or you can click here to register.
(Registration is free)


Click here for a plain text version of this song (for better printing)

Add this tab to your list of favorite tabs




#----------------------------------PLEASE NOTE---------------------------------#
#This file is the author's own work and represents their interpretation of the #
#song. You may only use this file for private study, scholarship, or research. #
#------------------------------------------------------------------------------#


Save the World
Bon Jovi

I've been a BON JOVI fan for quite some time. Their new album "Crush" is
excellent.  Here's a song I really enjoy, straight from the CRUSH tab book.

(Intro) w/8vb effect (pedal)

e------------------------------------------8----
b--8/10--8/10/8-6-8/10--8/10/8-6-8/10--8/10-8~~-(let last note ring)
g-----------------------------------------------
d-----------------------------------------------
a-----------------------------------------------
e-----------------------------------------------

I never went to college, I don't have a degree...but say I went to night school,
I learned all I know out on the streets...I wasn't born a rich man, I ain't got
no pedigree...

but I sweat on this old collar, well that's my PHD...

e---------------------------------------
b----------1------------------1------3--
g--------2------------------0--------0--
d------2------------------0----------2--
a----0------------------2------------3--
e---------------------------------------

  it comes down to this, I wouldn't exist, without you it ain't worth the cryin'

e---1-----------5---
b-----2-0-3---------
g------0---3-----5--(this is the riff played throughout the verses)
d-----------3-3---5-
a--------1---3-3----
e--1----------------

you make me feel, I could fly like...

e-----------0----0--0-
b-----------0----0--0-
g-----------1----1--1-
d---------------------
a---------------------
e---------------------

   I...can save...the world...since the night...your love...saved me

e-------------------------------------------------------------------
b-------------------------------------------------------------------
g---------2-----------4-------------4-------------------------------
d--4------2-----------4-------------4-----------------------2^4^2---
a--4------0-----------2-------------2------------------4------------
e--2----------------------------------------------------------------

   but as long...as you...b..lieve

e-----------------------------
b-----------------------------
g------9-----------2-------9--
d------7-----------2-------7--
a------7-----------0-------7--
e-----------------------------

(this following riff is played after the second chorus)

e--------------------------------------------------------------
b--5~~~~/10----8/10/8--6-8----10/11--13-15~~--13/15--17-17~~~^-(let ring, bend)
g--------------------------------------------------------------
d--------------------------------------------------------------
a--------------------------------------------------------------
e--------------------------------------------------------------

outro...
I love this part.  I have played along with the song from the book, and I
must be honest, it doesn't sound like it.  But I have made some adjustments.
Try it, I guarentee that it sounds great.


baby...        yeah...
e--------------------------------------------19------------19-----19-----19-
b--12/14--12-12----12/14--16-16-16~~16/17--19--17/19--17/19--17/19--17/19---
g---------------------------------------------------------------------------
d---------------------------------------------------------------------------
a---------------------------------------------------------------------------
e---------------------------------------------------------------------------

e--14--16-------------------------------------------------------------------
b--------15/16-----------19-19-19-19/18/19---14/16---7-0-7-0~--7-7-7-7-5/7--
g--------------16~-16~-16---------------------------------------------------
d---------------------------------------------------------------------------
a---------------------------------------------------------------------------
e---------------------------------------------------------------------------

e-------------------------------------------------------------------------------
b--3/5-----------3/5/7-7-17~17/16-17-16-16-16-17/19----17/16--17-17/16-17-17/16-
g-------3~/5~/3~----------------------------------------------------------------
d-------------------------------------------------------------------------------
a-------------------------------------------------------------------------------
e-------------------------------------------------------------------------------

e--------------------19/18/19~~-----19-----19-----19/18---------
b--17-17/16--17/19~~~----------18/19--18/19--18/19--------17/15-(fade out)
g---------------------------------------------------------------
d---------------------------------------------------------------
a---------------------------------------------------------------
e---------------------------------------------------------------



Comments about this tab

No comments/corrections found. Add your own



2005 ZMG, Inc.- All Right Reserved - Privacy Statement