Rockin Tabs Home

 :: Home > Tabs > B > Bon Jovi > Stick To Your Guns

Bon Jovi - Stick To Your Guns


This tab has not yet been rated for accuracy.Sorry, but you must be logged in to rate this tab so we can tell which songs you've already voted on, which will help prevent cheating.
Click here to log-in, or you can click here to register.
(Registration is free)


Click here for a plain text version of this song (for better printing)

Add this tab to your list of favorite tabs




#----------------------------------PLEASE NOTE---------------------------------#
#This file is the author's own work and represents their interpretation of the #
#song. You may only use this file for private study, scholarship, or research. #
#------------------------------------------------------------------------------#


Stick To Your Guns
Bon Jovi

For any Bon Jovi fans out there, here is my version of the intro of
'Stick to your guns'. It isn't perfect but it sounds half decent.

The song consists of a few bars of an heavy electric chords followed by
two rounds of an accoustic intro.

Intro (electric):

  D   G     D   G     D G     D   G
e-2-2-3-----2-2-3-----2-3-----2-2-3-----3----------------
B-3-3-0-----3-3-0-----3-0-----3-3-0-----0----------------
G-2-2-0-----2-2-0-----2-0-----2-2-0-----0----------------
D-0-0-0-----0-0-0-----0-0-----0-0-0-----0----------------
A-0-0-2-----0-0-2-----0-2-----0-0-2-----2----------------
E-----3---------3-------3---------3-----3----------------


Intro (accoustic): -play twice
   D           G              A             Bm      A
e--2--2-2-0----3------3-------0----------0--------2------
B--3--------3--0----0---0-----2------2-3--------3--------
G--2-----------0--0-------0---2----2----------4-------2--
D--0-----------0------------0-2--2----------4-------2----
A--------------------------------------------------------
E--------------------------------------------------------

      G                            D  A
e---0-------3-3------------------3-2--0------------0-----
B-2-------0-----0--------------0---3--2----------2-------
G-------0---------0----------0-----2--2--------2---------
D-----0--------------0---0-0-------0--2----2-2-----------
A--------------------------------------------------------
E--------------------------------------------------------

So you want to be a cowboy,
Well, it's more than just a ride...etc...



Comments about this tab

No comments/corrections found. Add your own



2005 ZMG, Inc.- All Right Reserved - Privacy Statement