Rockin Tabs Home

 :: Home > Tabs > B > Bon Jovi > Get Ready

Bon Jovi - Get Ready


This tab has not yet been rated for accuracy.Sorry, but you must be logged in to rate this tab so we can tell which songs you've already voted on, which will help prevent cheating.
Click here to log-in, or you can click here to register.
(Registration is free)


Click here for a plain text version of this song (for better printing)

Add this tab to your list of favorite tabs




#----------------------------------PLEASE NOTE---------------------------------#
#This file is the author's own work and represents their interpretation of the #
#song. You may only use this file for private study, scholarship, or research. #
#------------------------------------------------------------------------------#


Bon Jovi-Get Ready
		   tab by Iron

 Intro:
 guitar 2
 E |----------------------------------|<-------|
 B |----------------------------------|        |  
 G |---slide--------------------------|        |
 D |-----9/----6-7-----4-7------------|first   | 
 A |-----7/----4-5--/5-------4-7-7~---|time    |
 E |------0-0-0------------5----------|        |
		 			       |
 second time:				       |2x 	
 E |----------------------------------|        | 
 B |----------------------------------|        |
 G |---slide--------------------------|        |
 D |-----9/----6-7-----4-7-------7~---|        |
 A |-----7/----4-5--/5-------4-7------|        |
 E |------0-0-0------------5----------|<-------| 

 then guitar 1 comes crashing inside:
 E |-----------------------------------------|
 B |-----------------------------------------|
 G |---9-9-9-9-9-9-9-9-9-9-9-9-9-9-9/--------|
 D |---9-9-9-9-9-9-9-9-9-9-9-9-9-9-9/slide---|
 A |---7-7-7-7-7-7-7-7-7-7-7-7-7-7-7/--------|
 E |-----------------------------------------|
 ohhhh...
 
 Intro solo:
 guitar 1
 E |-------10--------10-----12-10------------------|
 B |---12~----12~12~----12~-------12-10~---10------|
 G |------------------------------------12----9~---|first
 D |-----------------------------------------------|time
 A |-----------------------------------------------|
 E |-----------------------------------------------|
 
 second time:
 E |-------10----------10-----12-10--------------12~---|
 B |---12~----12~12-12--------------12-10~----10-------|
 G |----------------------12~--------------12----------|
 D |---------------------------------------------------|
 A |---------------------------------------------------|
 E |---------------------------------------------------|

 background for intro solo:
 guitar 2
 E |----------------------------------|
 B |----------------------------------|         
 G |---slide--------------------------|        
 D |-----9/----6-7-----4-7------------|    
 A |-----7/----4-5--/5-------4-7-7~---|   
 E |------0-0-0------------5----------|2x    

 Verse:
 E |--------------------------------------------------------------------------------------------------|
 B |--------------------------------------------------------------------------------------------------|
 G |-slide---------------------slide------------------------------------------------------------slide-|first
 D |---9/----------------------9-9/----------------------7---6---7---6--6-----9-9---9---9---9-----9/--|time
 A |---7/----------------------7-7/----------------------5---4---5---4----5-6-7-7---7---7---7-5-6-7/--|
 E |----0-0-0-0-0-0-0-0-0-0-0-0---0-0-0-0-0-0-0-0-0-0-0-0-0-0-0-0-0-0----------0-0-0-0-0-0-0----------|
       You need someone...
 
 second time:
 E |------------------------------------------------------------------------------------------|
 B |------------------------------------------------------------------------------------------|
 G |-------------------------slide------------------------------------------------------------|
 D |-------------------------9-9/----------------------7---6---7---6--6-----9-9---9---9---9---|
 A |-------------------------7-7/----------------------5---4---5---4----5-6-7-7---7---7---7---|
 E |--0-0-0-0-0-0-0-0-0-0-0-0---0-0-0-0-0-0-0-0-0-0-0-0-0-0-0-0-0-0----------0-0-0-0-0-0-0----|
 Tonight you're not gonna...     
 
 Bridge:
 E |-------------------------------------------------------------------------------------------------|
 B |-------------------------------------------------------------------------------------------------|
 G |-----------------------------------------------------------------------------------------slide---|
 D |-------5-----------------------------7-----7-----7-----7-----------------------------------7/----|
 A |---0-2-3-3-3-3-3-3-3-3-3-3-3-3-3-5-5-5-5-5-5-5-5-5-5-5-5-3-3-3-3-3-3-3-3-3-3-3-3-5-5-5-5-5-5/----|
 E |-------------------------------------------------------------------------------------------------|
           I'm gonna take you...

 Chorus:
 first time:		             second time: 			     
 E |---------------------------------|------------------------|
 B |---------------------------------|------------------------|
 G |---slide----slide----------------|---slide----slide-------|
 D |-----9/--6-7--9/-----4-7---------|-----9/--6-7--9/--7-7---|
 A |-----7/--4-5--7/---5-------4-7---|-----7/--4-5--7/--5-5---|
 E |-------------------------5-------|------------------------|  
   come on,come on...		     come on,come on...  

 Repeat:
 Verse:
 E |--------------------------------------------------------------------------------------------------|
 B |--------------------------------------------------------------------------------------------------|
 G |-slide---------------------slide------------------------------------------------------------slide-|first
 D |---9/----------------------9-9/----------------------7---6---7---6--6-----9-9---9---9---9-----9/--|time
 A |---7/----------------------7-7/----------------------5---4---5---4----5-6-7-7---7---7---7-5-6-7/--|
 E |----0-0-0-0-0-0-0-0-0-0-0-0---0-0-0-0-0-0-0-0-0-0-0-0-0-0-0-0-0-0----------0-0-0-0-0-0-0----------|
       You're looking...

 second time:
 E |------------------------------------------------------------------------------------------|
 B |------------------------------------------------------------------------------------------|
 G |-------------------------slide------------------------------------------------------------|
 D |-------------------------9-9/----------------------7---6---7---6--6-----9-9---9---9---9---|
 A |-------------------------7-7/----------------------5---4---5---4----5-6-7-7---7---7---7---|
 E |--0-0-0-0-0-0-0-0-0-0-0-0---0-0-0-0-0-0-0-0-0-0-0-0-0-0-0-0-0-0----------0-0-0-0-0-0-0----|
 You're caught up... 
 
 Repeat:
 Bridge 1:
 E |-------------------------------------------------------------------------------------------------|
 B |-------------------------------------------------------------------------------------------------|
 G |-----------------------------------------------------------------------------------------slide---|
 D |-------5-----------------------------7-----7-----7-----7-----------------------------------7/----|
 A |---0-2-3-3-3-3-3-3-3-3-3-3-3-3-3-5-5-5-5-5-5-5-5-5-5-5-5-3-3-3-3-3-3-3-3-3-3-3-3-5-5-5-5-5-5/----|
 E |-------------------------------------------------------------------------------------------------|
           You want to take...
 Repeat:
 Chorus:
 E |---------------------------------|
 B |---------------------------------|
 G |---slide----slide----------------|
 D |-----9/--6-7--9/-----4-7---------|
 A |-----7/--4-5--7/---5-------4-7---|
 E |-------------------------5-------|3x 
   come on,come on...		          
 
 last time:  
 E |------------------------|
 B |------------------------|
 G |---slide----slide-------|
 D |-----9/--6-7--9/--7-7---|
 A |-----7/--4-5--7/--5-5---|
 E |------------------------|  

 Background for solo:
 E |---------------------------------|
 B |---------------------------------|
 G |---slide----slide----------------|
 D |-----9/--6-7--9/-----4-7---------|
 A |-----7/--4-5--7/---5-------4-7---|
 E |-------------------------5-------|4x

 Bridge 2:
 E |--------------------------------------------------|
 B |--------------------------------------------------|
 G |---------9~--7---6---4------------9~--7---6---7---|listen to hear
 D |-------9-----7---6---4----------9-----7---6---7---|how much times
 A |-----7---------5---4----------7---------5---4-----|this goes
 E |---0-------------------5~~--0---------------------|  
 hahahaha...
 
 Repeat:
 Chorus:
 E |---------------------------------|
 B |---------------------------------|
 G |---slide----slide----------------|
 D |-----9/--6-7--9/-----4-7---------|
 A |-----7/--4-5--7/---5-------4-7---|
 E |-------------------------5-------|3x 
   come on,come on...		          
 								    end solo
 last time:							      \	 /
 E |-------------------------------------------------------------------\/--------|
 B |-----------------------------------------------------------------------------|
 G |---slide----slide----------------------------------------let-ring------------|
 D |-----9/--6-7--9/-----4-7----------4-7----------4-7-----------9-----------2---|
 A |-----7/--4-5--7/---5-------4-7--5-------4-7--5-------4-7-----7-----------2---|
 E |-------------------------5------------5------------5---------0-----------0---|the end  



Comments about this tab

No comments/corrections found. Add your own



2005 ZMG, Inc.- All Right Reserved - Privacy Statement