Rockin Tabs Home

 :: Home > Tabs > B > Blink-182 > Don't Leave Me

Blink-182 - Don't Leave Me


This tab has not yet been rated for accuracy.Sorry, but you must be logged in to rate this tab so we can tell which songs you've already voted on, which will help prevent cheating.
Click here to log-in, or you can click here to register.
(Registration is free)


Click here for a plain text version of this song (for better printing)

Add this tab to your list of favorite tabs




#----------------------------------PLEASE NOTE---------------------------------#
#This file is the author's own work and represents their interpretation of the #
#song. You may only use this file for private study, scholarship, or research. #
#------------------------------------------------------------------------------#


"Dont Leave Me"
Artist: Blink 182
Album: Enema of the State, 1999
Tabbed by Ed Monahan, iCHiBAN_enTeRPRISeS@hotmail.com
This tab is all my own work.

This is the best and easyist way to play 'Dont leave me'

in this song there is lots of fast playing (tikatikas) 8th notes and
stuff... the tikatikas will be symbolised by * (star) when doing the
tikatikas...
do not put any pressure on the srings... if you have heard the song
you will understad what i mean...
so bare with me...

Intro:

E-------------------------------------------------------------------------
B-------------------------------------------------------------------------
G-------------------------------------------------------------------------
D-------------------------------------------------------------------------
A-*7-7-7-7-7-*7--12-12-12-12--*12--9-9-9-9--12-12-12-12--14-14-14-14-*14--
E-*5-5-5-5-5-*5--10-10-10-10--*10--7-7-7-7--10-10-10-10--12-12-12-12-*12--
Repeat twice

Second Part:

E-------------------------------------------------------------------------]
B-------------------------------------------------------------------------]
G-------------------------------------------------------------------------]
D-------------------------------------------------------------------------]
A-*7-7-7-7--9-9-9--12-12-12--14-14-14--7-7-7--9-9-9--12-12-12--14-*14-----]
E-*5-5-5-5--7-7-7--10-10-10--12-12-12--5-5-5--7-7-7--10-10-10--12-*12-----]
continued                                                 -- repeat twice
E-------------------------------------------------------------------------]
B-------------------------------------------------------------------------]
G-------------------------------------------------------------------------]
D-------------------------------------------------------------------------]
A-7-7-7--9-9-9--12-12-12--14-14-14--7-7-7--9-9-9--12-12-12--14-14-14-14-14]
E-5-5-5--7-7-7--10-10-10--12-12-12--5-5-5--7-7-7--10-10-10--12-12-12-12-12]

well that is just about it if you have heard this song you will know how to
play it... its very easy...

if you want more Blink -182- tab email me:
ichiban_enterprises@hotmail.com



Comments about this tab

No comments/corrections found. Add your own



2005 ZMG, Inc.- All Right Reserved - Privacy Statement