Rockin Tabs Home

 :: Home > Tabs > B > Blink-182 > Dysentery Gary

Blink-182 - Dysentery Gary


This tab has not yet been rated for accuracy.Sorry, but you must be logged in to rate this tab so we can tell which songs you've already voted on, which will help prevent cheating.
Click here to log-in, or you can click here to register.
(Registration is free)


Click here for a plain text version of this song (for better printing)

Add this tab to your list of favorite tabs




#----------------------------------PLEASE NOTE---------------------------------#
#This file is the author's own work and represents their interpretation of the #
#song. You may only use this file for private study, scholarship, or research. #
#------------------------------------------------------------------------------#


		           DYSENTERY GARY - Blink 182

Intro: (strummed fast using up/down strokes)
E|-------------------------------------------------------------------------|
B|-------------------------------------------------------------------------|
G|-------------------------------------------------------------------------|
D|-------------------------------------------------------------------------|
A|-9-9-9-9-9------------10-10-10-10---9-9-9-9-9----------------------------|
E|------------10-10-10---------------------------10-10-10-10---------------|

e|-------------------------------------------------------------------------|
B|-------------------------------------------------------------------------|
G|-------------------------------------------------------------------------|
D|----------4-4-4-4-----------4-4-4-4-4-4-4-5------------------------------|
A|-------------------------------------------------------------------------|
E|--3-3-3-3----------5-5-5-5-----------------------------------------------|

Fill: 
E|-------------------------------------------------------------------------|
B|-------------------------------------------------------------------------|
G|---7-7-7-7-7-7-7-7-------------------------------------------------------|
D|---7-7-7-7-7-7-7-7---5-5-5-5-5-5-5-5---7-7-7-7-7-7-----------------------|
A|---5-5-5-5-5-5-5-5---5-5-5-5-5-5-5-5---7-7-7-7-7-7-----------------------|
E|---------------------3-3-3-3-3-3-3-3---5-5-5-5-5-5-----------------------|

Riff 1:(muted fast)
e|-------------------------------------------------------------------------|
B|-------------------------------------------------------------------------|
G|----7-x-x-x-x-x-x-7------7-x-x-x-x-x-x-7---------------------------------|
D|----7-x-x-x-x-x-x-7------7-x-x-x-x-x-x-7--------5-x-x-x-x-x-x-5----------|
A|----5-x-x-x-x-x-x-5------5-x-x-x-x-x-x-5--------5-x-x-x-x-x-x-5----------|
E|------------------------------------------------3-x-x-x-x-x-x-3----------|

E|---------------------------------------|
B|---------------------------------------|
G|---------------------------------------|
D|----7-x-x-7-x-x-x-7-x-7----------------|
A|----7-x-x-7-x-x-x-7-x-7----------------|
E|----5-x-x-5-x-x-x-5-x-5----------------|

          Pre-Chorus:  (Clean Guitar)
E|------------------------------------------------------------------------|
B|------------------------------------------------------------------------|
G|-----7---------------------------------7-7-7----------------------------|
D|-----7--(strumed for a while)----------5-5-5----------------------------|
A|-----5---------------------------------5-5-5----------------------------|
E|------------------------------------------------------------------------|

          Chorus:
E|---------------------------------------------------------------------------|
B|---------------------------------------------------------------------------|
G|----7-7-7-7-7-7-7-7-7-7-7-7------------------------------------------------|
D|----7-7-7-7-7-7-7-7-7-7-7-7--5-5-5-5-5-5-5-5-5-5-5--7-7-7-7-7-7-7-7-7-7-7--|
A|----5-5-5-5-5-5-5-5-5-5-5-5--5-5-5-5-5-5-5-5-5-5-5--7-7-7-7-7-7-7-7-7-7-7--|
E|-----------------------------3-3-3-3-3-3-3-3-3-3-3--5-5-5-5-5-5-5-5-5-5-5--|

          Post-Chorus:
E|---15-14-----------------------------------|
B|------------15-----------------------------|
G|-------------------12-12-12----------------|
D|-------------------------------------------|
A|-------------------------------------------|
E|-------------------------------------------|


Song Structure:

Intro: x2
Intro(w/Fill): x 2
Riff 1: x 2
Pre-Chorus: x1
Chorus:x 1
Post-Chorus: x 6
Intro(w/Fill): x 2
Riff 1: x 2
Pre-Chorus: x2
Chorus: x1
Post-Chorus: x6
[Bass Solo Type Thing]
Post-Chorus: x6
End on Intro(Slightly Different)



Comments about this tab

No comments/corrections found. Add your own



2005 ZMG, Inc.- All Right Reserved - Privacy Statement