Rockin Tabs Home

 :: Home > Tabs > B > Blink-182 > Fentoozler

Blink-182 - Fentoozler


This tab has not yet been rated for accuracy.Sorry, but you must be logged in to rate this tab so we can tell which songs you've already voted on, which will help prevent cheating.
Click here to log-in, or you can click here to register.
(Registration is free)


Click here for a plain text version of this song (for better printing)

Add this tab to your list of favorite tabs




#----------------------------------PLEASE NOTE---------------------------------#
#This file is the author's own work and represents their interpretation of the #
#song. You may only use this file for private study, scholarship, or research. #
#------------------------------------------------------------------------------#


Blink-182
Fentoozler

   Intro                                                 
E  :------------------------------|------------------------|
B  :------------------------------|------------------------|
G  :4-4-4-4-4-4-/11-11-11-11-11-11|4-4-4-4-4-4-/9-9-9-9-9-9|
D  :4-4-4-4-4-4-/11-11-11-11-11-11|4-4-4-4-4-4-/9-9-9-9-9-9|
A  :2-2-2-2-2-2-/-9--9--9--9--9--9|2-2-2-2-2-2-/7-7-7-7-7-7|
E  :------------------------------|------------------------|

                                                
E  :-----------------------|--------------------|
B  :-----------------------|--------------------|
G  :4-4-4-4-4-6-6-6-6-6-6-6|9-9-9-9-9-9-9--8----|
D  :4-4-4-4-4-6-6-6-6-6-6-6|9-9-9-9-9-9-9--8--9-|
A  :2-2-2-2-2-4-4-4-4-4-4-4|7-7-7-7-7-7-7--6--9-|
E  :-----------------------|------------------7-|

                                                           
E  :------------------------------|------------------------|
B  :------------------------------|------------------------|
G  :4-4-4-4-4-4-/11-11-11-11-11-11|4-4-4-4-4-4-/9-9-9-9-9-9|
D  :4-4-4-4-4-4-/11-11-11-11-11-11|4-4-4-4-4-4-/9-9-9-9-9-9|
A  :2-2-2-2-2-2-/-9--9--9--9--9--9|2-2-2-2-2-2-/7-7-7-7-7-7|
E  :------------------------------|------------------------|

                                                
E  :-----------------------|--------------------|
B  :-----------------------|--------------------|
G  :4-4-4-4-4-6-6-6-6-6-6-6|9-9-9-9-9-9-9--8----|
D  :4-4-4-4-4-6-6-6-6-6-6-6|9-9-9-9-9-9-9--8--9-|
A  :2-2-2-2-2-4-4-4-4-4-4-4|7-7-7-7-7-7-7--6--9-|
E  :-----------------------|------------------7-|

   Ver s e   1                                                    
E  :----------------------------------|---------------------------|
B  :----------------------------------|---------------------------|
G  :4-4-4-4-4-4-4-11-11-11-11-11-11-11|4-4-4-4-4-4-4-9-9-9-9-9-9-9|
D  :4-4-4-4-4-4-4-11-11-11-11-11-11-11|4-4-4-4-4-4-4-9-9-9-9-9-9-9|
A  :2-2-2-2-2-2-2--9--9--9--9--9--9--9|2-2-2-2-2-2-2-7-7-7-7-7-7-7|
E  :----------------------------------|---------------------------|

                                                      
E  :---------------------------|----------------------|
B  :---------------------------|----------------------|
G  :4-4-4-4-4-4-4-6-6-6-6-6-6-6|9-9-9-9-9-9-9-9--8----|
D  :4-4-4-4-4-4-4-6-6-6-6-6-6-6|9-9-9-9-9-9-9-9--8--9-|
A  :2-2-2-2-2-2-2-4-4-4-4-4-4-4|7-7-7-7-7-7-7-7--6--9-|
E  :---------------------------|--------------------7-|

                                                                  
E  :----------------------------------|---------------------------|
B  :----------------------------------|---------------------------|
G  :4-4-4-4-4-4-4-11-11-11-11-11-11-11|4-4-4-4-4-4-4-9-9-9-9-9-9-9|
D  :4-4-4-4-4-4-4-11-11-11-11-11-11-11|4-4-4-4-4-4-4-9-9-9-9-9-9-9|
A  :2-2-2-2-2-2-2--9--9--9--9--9--9--9|2-2-2-2-2-2-2-7-7-7-7-7-7-7|
E  :----------------------------------|---------------------------|

                                                      Chorus           
E  :---------------------------|----------------------|----------------|
B  :---------------------------|----------------------|----------------|
G  :4-4-4-4-4-4-4-6-6-6-6-6-6-6|9-9-9-9-9-9-9-9--8----|6-6-6-6-9-9-9-9-|
D  :4-4-4-4-4-4-4-6-6-6-6-6-6-6|9-9-9-9-9-9-9-9--8--9-|6-6-6-6-9-9-9-9-|
A  :2-2-2-2-2-2-2-4-4-4-4-4-4-4|7-7-7-7-7-7-7-7--6--9-|4-4-4-4-7-7-7-7-|
E  :---------------------------|--------------------7-|----------------|

                                         Pre   Ver s e           
E  :--------------------|----------------|-----------------------|
B  :--------------------|----------------|-----------------------|
G  :--------11-11-11-11-|6-6-6-6-9-9-9-9-|4-4-4-4-4-4------------|
D  :9-9-9-9-11-11-11-11-|6-6-6-6-9-9-9-9-|4-4-4-4-4-4-2-2-2-2-2-2|
A  :9-9-9-9--9--9--9--9-|4-4-4-4-7-7-7-7-|2-2-2-2-2-2-2-2-2-2-2-2|
E  :7-7-7-7-------------|----------------|------------0-0-0-0-0-0|

                                                           
E  :------------------------------|------------------------|
B  :------------------------------|------------------------|
G  :4-4-4-4-4-4-/11-11-11-11-11-11|4-4-4-4-4-4-/9-9-9-9-9-9|
D  :4-4-4-4-4-4-/11-11-11-11-11-11|4-4-4-4-4-4-/9-9-9-9-9-9|
A  :2-2-2-2-2-2-/-9--9--9--9--9--9|2-2-2-2-2-2-/7-7-7-7-7-7|
E  :------------------------------|------------------------|

                                                
E  :-----------------------|--------------------|
B  :-----------------------|--------------------|
G  :4-4-4-4-4-6-6-6-6-6-6-6|9-9-9-9-9-9-9--8----|
D  :4-4-4-4-4-6-6-6-6-6-6-6|9-9-9-9-9-9-9--8--9-|
A  :2-2-2-2-2-4-4-4-4-4-4-4|7-7-7-7-7-7-7--6--9-|
E  :-----------------------|------------------7-|

                                                           
E  :------------------------------|------------------------|
B  :------------------------------|------------------------|
G  :4-4-4-4-4-4-/11-11-11-11-11-11|4-4-4-4-4-4-/9-9-9-9-9-9|
D  :4-4-4-4-4-4-/11-11-11-11-11-11|4-4-4-4-4-4-/9-9-9-9-9-9|
A  :2-2-2-2-2-2-/-9--9--9--9--9--9|2-2-2-2-2-2-/7-7-7-7-7-7|
E  :------------------------------|------------------------|

                                                
E  :-----------------------|--------------------|
B  :-----------------------|--------------------|
G  :4-4-4-4-4-6-6-6-6-6-6-6|9-9-9-9-9-9-9--8----|
D  :4-4-4-4-4-6-6-6-6-6-6-6|9-9-9-9-9-9-9--8--9-|
A  :2-2-2-2-2-4-4-4-4-4-4-4|7-7-7-7-7-7-7--6--9-|
E  :-----------------------|------------------7-|

   Ver s e   2                                                    
E  :----------------------------------|---------------------------|
B  :----------------------------------|---------------------------|
G  :4-4-4-4-4-4-4-11-11-11-11-11-11-11|4-4-4-4-4-4-4-9-9-9-9-9-9-9|
D  :4-4-4-4-4-4-4-11-11-11-11-11-11-11|4-4-4-4-4-4-4-9-9-9-9-9-9-9|
A  :2-2-2-2-2-2-2--9--9--9--9--9--9--9|2-2-2-2-2-2-2-7-7-7-7-7-7-7|
E  :----------------------------------|---------------------------|

                                                      
E  :---------------------------|----------------------|
B  :---------------------------|----------------------|
G  :4-4-4-4-4-4-4-6-6-6-6-6-6-6|9-9-9-9-9-9-9-9--8----|
D  :4-4-4-4-4-4-4-6-6-6-6-6-6-6|9-9-9-9-9-9-9-9--8--9-|
A  :2-2-2-2-2-2-2-4-4-4-4-4-4-4|7-7-7-7-7-7-7-7--6--9-|
E  :---------------------------|--------------------7-|

                                                                  
E  :----------------------------------|---------------------------|
B  :----------------------------------|---------------------------|
G  :4-4-4-4-4-4-4-11-11-11-11-11-11-11|4-4-4-4-4-4-4-9-9-9-9-9-9-9|
D  :4-4-4-4-4-4-4-11-11-11-11-11-11-11|4-4-4-4-4-4-4-9-9-9-9-9-9-9|
A  :2-2-2-2-2-2-2--9--9--9--9--9--9--9|2-2-2-2-2-2-2-7-7-7-7-7-7-7|
E  :----------------------------------|---------------------------|

                                                      Chorus           
E  :---------------------------|----------------------|----------------|
B  :---------------------------|----------------------|----------------|
G  :4-4-4-4-4-4-4-6-6-6-6-6-6-6|9-9-9-9-9-9-9-9--8----|6-6-6-6-9-9-9-9-|
D  :4-4-4-4-4-4-4-6-6-6-6-6-6-6|9-9-9-9-9-9-9-9--8--9-|6-6-6-6-9-9-9-9-|
A  :2-2-2-2-2-2-2-4-4-4-4-4-4-4|7-7-7-7-7-7-7-7--6--9-|4-4-4-4-7-7-7-7-|
E  :---------------------------|--------------------7-|----------------|

                                         Sol o                   
E  :--------------------|----------------|-----------------------|
B  :--------------------|----------------|-----------------------|
G  :--------11-11-11-11-|6-6-6-6-9-9-9-9-|4-4-4-4-4-4------------|
D  :9-9-9-9-11-11-11-11-|6-6-6-6-9-9-9-9-|4-4-4-4-4-4-2-2-2-2-2-2|
A  :9-9-9-9--9--9--9--9-|4-4-4-4-7-7-7-7-|2-2-2-2-2-2-2-2-2-2-2-2|
E  :7-7-7-7-------------|----------------|------------0-0-0-0-0-0|

                                                           
E  :------------------------------|------------------------|
B  :------------------------------|------------------------|
G  :4-4-4-4-4-4-/11-11-11-11-11-11|4-4-4-4-4-4-/9-9-9-9-9-9|
D  :4-4-4-4-4-4-/11-11-11-11-11-11|4-4-4-4-4-4-/9-9-9-9-9-9|
A  :2-2-2-2-2-2-/-9--9--9--9--9--9|2-2-2-2-2-2-/7-7-7-7-7-7|
E  :------------------------------|------------------------|

                                                
E  :-----------------------|--------------------|
B  :-----------------------|--------------------|
G  :4-4-4-4-4-6-6-6-6-6-6-6|9-9-9-9-9-9-9--8----|
D  :4-4-4-4-4-6-6-6-6-6-6-6|9-9-9-9-9-9-9--8--9-|
A  :2-2-2-2-2-4-4-4-4-4-4-4|7-7-7-7-7-7-7--6--9-|
E  :-----------------------|------------------7-|

                                                           
E  :------------------------------|------------------------|
B  :------------------------------|------------------------|
G  :4-4-4-4-4-4-/11-11-11-11-11-11|4-4-4-4-4-4-/9-9-9-9-9-9|
D  :4-4-4-4-4-4-/11-11-11-11-11-11|4-4-4-4-4-4-/9-9-9-9-9-9|
A  :2-2-2-2-2-2-/-9--9--9--9--9--9|2-2-2-2-2-2-/7-7-7-7-7-7|
E  :------------------------------|------------------------|

                                                   Chorus           
E  :-----------------------|-----------------------|----------------|
B  :-----------------------|-----------------------|----------------|
G  :4-4-4-4-4-6-6-6-6-6-6-6|9-9-9-9-9--------------|6-6-6-6-9-9-9-9-|
D  :4-4-4-4-4-6-6-6-6-6-6-6|9-9-9-9-9-9-9-9-9-9-9-9|6-6-6-6-9-9-9-9-|
A  :2-2-2-2-2-4-4-4-4-4-4-4|7-7-7-7-7-9-9-9-9-9-9-9|4-4-4-4-7-7-7-7-|
E  :-----------------------|----------7-7-7-7-7-7-7|----------------|

                                                                 
E  :--------------------|----------------|-----------------------|
B  :--------------------|----------------|-----------------------|
G  :--------11-11-11-11-|6-6-6-6-9-9-9-9-|4-4-4-4-4-/9-9-9-9-9-9-|
D  :9-9-9-9-11-11-11-11-|6-6-6-6-9-9-9-9-|4-4-4-4-4-/9-9-9-9-9-9-|
A  :9-9-9-9--9--9--9--9-|4-4-4-4-7-7-7-7-|2-2-2-2-2-/7-7-7-7-7-7-|
E  :7-7-7-7-------------|----------------|-----------------------|

                                                                       
E  :-----------------------------|--------------------|----------------|
B  :-----------------------------|--------------------|----------------|
G  :4-4-4-4-4-/11-11-11-11-11-11-|4-4-4-4-4-/9--------|----------------|
D  :4-4-4-4-4-/11-11-11-11-11-11-|4-4-4-4-4-/9--------|----------------|
A  :2-2-2-2-2-/-9--9--9--9--9--9-|2-2-2-2-2-/7--------|----------------|
E  :-----------------------------|--------------------|----------------|

                    
E  :----------------|
B  :----------------|
G  :*---------------|
D  :*---------------|
A  :*---------------|
E  :----------------|



Comments about this tab

No comments/corrections found. Add your own



2005 ZMG, Inc.- All Right Reserved - Privacy Statement