Rockin Tabs Home

 :: Home > Tabs > S > System Of A Down > Darts

System Of A Down - Darts


This tab has not yet been rated for accuracy.Sorry, but you must be logged in to rate this tab so we can tell which songs you've already voted on, which will help prevent cheating.
Click here to log-in, or you can click here to register.
(Registration is free)


Click here for a plain text version of this song (for better printing)

Add this tab to your list of favorite tabs




#----------------------------------PLEASE NOTE---------------------------------#
#This file is the author's own work and represents their interpretation of the #
#song. You may only use this file for private study, scholarship, or research. #
#------------------------------------------------------------------------------#


Artist: System Of A Down
Title : Darts
Album : System Of A Down

This song is really cool to play and is a great way to end a show.  It's relatively
pretty easy, so that helps a great deal (Unless you add more to it to extend it, which is
also very cool).

Tuning: Drop C (lowest to highest: CGCFAD)

NOTE: ^ means bend up to this note
      / means slide to this note

If you think this is tabbed wrong...BUY THE BOOK!



Main Riff (most of the rhythms are based on this one):
|----------------------------------|----------------------------------------|
|----------------------------------|----------------------------------------|
|----------------------------------|----------------------------------------|
|-0---0-0-0-0-0-0/6---6-6-6-6-6-6/-|-11---11-11-11-11-11-11/5---5-5-5-5-5-5-|
|-0---0-0-0-0-0-0/6---6-6-6-6-6-6/-|-11---11-11-11-11-11-11/5---5-5-5-5-5-5-|
|-0---0-0-0-0-0-0/6---6-6-6-6-6-6/-|-11---11-11-11-11-11-11/5---5-5-5-5-5-5-|
"Thou not human man art ..."
"-Rise as did the gogs Ninti a-..."



1st Verse: (Tacet the first time; the bass plays that part alone)
|------------------------|------------------------|        |----|
|------------------------|------------------------|        |----|
|----------13---13^15-13-|----------12---12^14-12-| REPEAT |-12-|
|-12---------------------|-11---------------------|        |-11-|
|------------------------|------------------------|        |----|
|------------------------|------------------------|        |----|
"May I please remain in this space..."



Solo:
|-----------------------------------------|---------------------------------|
|-10-10-10-10-10-10-10-10-9-9-9-9-9-9-9-9-|-8-8-8-8-8-8-8-8-7-7-7-7-7-7-7-7-|
|-----------------------------------------|---------------------------------|
|-----------------------------------------|---------------------------------|
|-----------------------------------------|---------------------------------|
|-----------------------------------------|---------------------------------|

|-------12--------11---|-----10---------|
|-10-10----10-9-9----9-|-8-8----8-7^8^7-|
|----------------------|----------------|
|----------------------|----------------|
|----------------------|----------------|
|----------------------|----------------|



2nd Verse: (Play both times)
|-------------|-------------|        |---|
|-------------|-------------|        |---|
|-------------|-------------| REPEAT |---|
|-----6-6^7-6-|-----5-5^6-5-|        |-5-|
|-5-----------|-4-----------|        |-4-|
|-------------|-------------|        |---|
"Life-threatening lifestyles..."



Pre-lude to bridge:
|---------------------------------|----------------------------------|
|---------------------------------|----------------------------------|
|---------------------------------|----------------------------------|
|-0---------------6---------------|-11---------------5---------------|
|-0---------------6---------------|-11---------------5---------------|
|-0---------------6---------------|-11---------------5---------------|

                                   (This is "11" not "1" played super
                                   fast, DUMB ASS!)
|---------------------------------|----------------------------------|
|---------------------------------|----------------------------------|
|---------------------------------|----------------------------------|
|-0-0-0-0-0-0-0-0-6-6-6-6-6-6-6-6-|-1111111111111111-5-5-5-5-5-5-5-5-|
|-0-0-0-0-0-0-0-0-6-6-6-6-6-6-6-6-|-1111111111111111-5-5-5-5-5-5-5-5-|
|-0-0-0-0-0-0-0-0-6-6-6-6-6-6-6-6-|-1111111111111111-5-5-5-5-5-5-5-5-|
 Palm muted .........................................
                                            (Release very gradually)


Bridge (Bass playes):
|---------------------------------|----------------------------------|
|---------------------------------|----------------------------------|
|---------------------------------|----------------------------------|
|---------------------------------|----------------------------------|
|---------------------------------|----------------------------------|
|---------------------------------|----------------------------------|
        "Clock    men,                    for        they will"       FAIL
        "Fear     not     the gods        that come  from the"        SKY
        "Long enough      for the   ones who've     lost their"       WAY
        "Long enough      for the   ones who've     lost their"       WAY
          NAH NAH NAH NAH NAH NAH NAH NAH NAH NAH NAH NAH NAH NAH


End of Bridge (Rake the picks):
|-5-------5-------5-------5-------|-4-------4-------4-------4--------|
|-------X-------X-------X-------X-|-------X-------X-------X-------X--|
|-----X-------X-------X-------X---|-----X-------X-------X-------X----|
|---X-------X-------X-------X-----|---X-------X-------X-------X------|
|---------------------------------|----------------------------------|
|---------------------------------|----------------------------------|

|-3-------3-------3-------3-------|
|-------X-------X-------X---------|
|-----X-------X-------X-----------|
|---X-------X-------X-------------|
|---------------------------------|
|---------------------------------|

Outro:
|---------------------------------|------------------------------------------|
|---------------------------------|------------------------------------------|
|---------------------------------|------------------------------------------|
|-0---0---0---0---6---6---6---6---|-11---11---11---11---11---5---5---5---5---|
|-0---0---0---0---6---6---6---6---|-11---11---11---11---11---5---5---5---5---|
|-0---0---0---0---6---6---6---6---|-11---11---11---11---11---5---5---5---5---|
 Palm muted .................................................................

|-----|-----|------|-----|-----|-----|------|
|-----|-----|------|-----|-----|-----|--14--|
|-----|-----|------|-----|-----|-----|--13--|
|--0--|--6--|--11--|--5--|--0--|--6--|--11--|
|--0--|--6--|--11--|--5--|--0--|--6--|--11--|
|--0--|--6--|--11--|--5--|--0--|--6--|--11--|
 "CAN   YOU   TELL   ME?    I   DON'T  KNOW!"


SONG FLOW:
Main Riff (2x)
    (tacet)
    1st Verse
Main Riff (2x)
    Solo
    2nd Verse (2x)
Main Riff (2x)
Prelude to bridge
    Bridge (2x)
Main Riff
    Bridge
Main Riff
    Bridge
Main Riff
    Bridge
Main Riff
    Bridge
Main Riff
    End of bridge
Main Riff (2x)
Outro

Now wasn't that easy?



Comments about this tab

No comments/corrections found. Add your own



2005 ZMG, Inc.- All Right Reserved - Privacy Statement