Rockin Tabs Home

 :: Home > Tabs > E > Evanescence > Bring Me to Life

Evanescence - Bring Me to Life


This tab has been rated a 4.00 out of 5 for accuracy.
(1 vote)
Sorry, but you must be logged in to rate this tab so we can tell which songs you've already voted on, which will help prevent cheating.
Click here to log-in, or you can click here to register.
(Registration is free)


Click here for a plain text version of this song (for better printing)

Add this tab to your list of favorite tabs




#----------------------------------PLEASE NOTE---------------------------------#
#This file is the author's own work and represents their interpretation of the #
#song. You may only use this file for private study, scholarship, or research. #
#------------------------------------------------------------------------------#


Evanescence
Fallen
Bring me to life
Wind-Up Records
WolfClaw06@hotmail.com

I've seen a couple of tabs for this song, but I didn't think they were
entirely correct, so here's my version:

Drop D

when the guitar comes in:

Verse:

G-----------5-5-5-5|
D-2-2-2-2-2-5-5-5-5|  repeat as necessary
A-2-2-2-2-2-3-3-3-3|
E-2-2-2-2-2--------|

chorus:

D-2-2-2-2-2--5-5-5-5-5-0-0-0-0-0-2-2-2-2|
A-2-2-2-2-2--5-5-5-5-5-0-0-0-0-0-2-2-2-2|
E-2-2-2-2-2--5-5-5-5-5-0-0-0-0-0-2-2-2-2|


after 2nd chorus:

G-5-5-5-5-5-7-7-7-7-7--------|
D-5-5-5-5-5-7-7-7-7-7-2-2-2-2|
A-3-3-3-3-3-5-5-5-5-5-2-2-2-2|
E---------------------2-2-2-2|

Interlude thing 2:15

G-------5|
D-2-4-5-5|
A-2-4-5-3|
E-2-4-5--|

Bridge 2:18

G-5-5-5-5---------7-7-7-7-7|
D-5-5-5-5-2-2-2-2-7-7-7-7-7| interlude, then this again
A-3-3-3-3-2-2-2-2-5-5-5-5-5|
E---------2-2-2-2----------|

verse


chorus

then

G-5-5-5-5-5-7-7-7-7-7--------|
D-5-5-5-5-5-7-7-7-7-7-2-2-2-2|
A-3-3-3-3-3-5-5-5-5-5-2-2-2-2|
E---------------------2-2-2-2|

it's really a simple song, only a few chords.  Sometimes it sounds cool if
you substitute the
--------         -7-7-7-7-7
-0-0-0-0         -7-7-7-7-7
-0-0-0-0  with   -5-5-5-5-5
-0-0-0-0         ----------
as they are octaves



Comments about this tab

No comments/corrections found. Add your own



2005 ZMG, Inc.- All Right Reserved - Privacy Statement