Rockin Tabs Home

 :: Home > Tabs > E > Evanescence > Bring Me to Life

Evanescence - Bring Me to Life


This tab has been rated a 4.00 out of 5 for accuracy.
(1 vote)
Sorry, but you must be logged in to rate this tab so we can tell which songs you've already voted on, which will help prevent cheating.
Click here to log-in, or you can click here to register.
(Registration is free)


Click here for a plain text version of this song (for better printing)

Add this tab to your list of favorite tabs




#----------------------------------PLEASE NOTE---------------------------------#
#This file is the author's own work and represents their interpretation of the #
#song. You may only use this file for private study, scholarship, or research. #
#------------------------------------------------------------------------------#


Artist: Evanescence
Song: Bring Me to Life
Tabbed by: ShadowCruiser2K3
Tuning: Standard EADGBe

Legend:
** - palm mute
H  - harmonics
\  - slide down

There was no decent standard version, so, I made one.

I left out the intro because it's not played on the guitar. 
Check the other tabs if you really want it.

Follow the CD to get the rhythm right.

Verse 1 (:30) (two times)
e|--------------------------------------------------|
B|--------------------------------------------------|
G|--------------------------------------------------|
D|--2-2--2-2--2-2--2-2--2-2--2--2-2--2-2--2-2-2---2-|
A|--2-2--2-2--2-2--2-2--2-2--2--2-2--2-2--2-2-2-----|
E|--0-0--0-0--0-0--0-0--0-0--0--0-0--0-0--0-0-0-----|
                            ***
Verse 1 (:35) Cont'd
e|--------------------------------------------------|
B|--------------------------------------------------|
G|--5-5--5-5--5-5--5-5--5-5--5--5-5--5-5--5-5-5-----|
D|--5-5--5-5--5-5--5-5--5-5--5--5-5--5-5--5-5-5-----|
A|--3-3--3-3--3-3--3-3--3-3--3--3-3--3-3--3-3-3---3-|
E|--3-3--3-3--3-3--3-3--3-3--3--3-3--3-3--3-3-3-----|
                            ***

Chorus 1 (:53) (two times)
e|--------------------|
B|--------------------|
G|----------7---------|
D|--2---5---7---2-----|
A|--2---5---5---2-----|
E|--0---3---5---0-----|


Interlude 1 (1:13)
e|--------------------------------------------------|
B|--------------------------------------------------|
G|--5--5-------------------7--7---------------------|
D|--5--5-------------------7--7---------------------|
A|--3--3--------2--2-----2-5--5--------2--2-----2---|
E|--------------0--0-----0-------------0--0-----0---|
               ******   ***           ******   ***
Interlude 1 Cont'd (1:18)
e|--------------------------------------------------|
B|--------------------------------------------------|
G|--------------------------------------------------|
D|--2-2--2-2--2-2--2-2--2-2--2--2-2--2-2--2-2-2-----|
A|--2-2--2-2--2-2--2-2--2-2--2--2-2--2-2--2-2-2-----|
E|--0-0--0-0--0-0--0-0--0-0--0--0-0--0-0--0-0-0-----|
                            ***

Verse 2 (1:33) (two times)
e|--------------------------------------------------|
B|--------------------------------------------------|
G|--------------------------------------------------|
D|--2-2--2-2--2-2--2-2--2-2--2--2-2--2-2--2-2-2---2-|
A|--2-2--2-2--2-2--2-2--2-2--2--2-2--2-2--2-2-2-----|
E|--0-0--0-0--0-0--0-0--0-0--0--0-0--0-0--0-0-0-----|
                            ***
Verse 2 Cont'd (1:38)
e|--------------------------------------------------|
B|--------------------------------------------------|
G|--5-5--5-5--5-5--5-5--5-5--5--5-5--5-5--5-5-5-----|
D|--5-5--5-5--5-5--5-5--5-5--5--5-5--5-5--5-5-5-----|
A|--3-3--3-3--3-3--3-3--3-3--3--3-3--3-3--3-3-3---3-|
E|--3-3--3-3--3-3--3-3--3-3--3--3-3--3-3--3-3-3-----|
                            ***

Chorus 2 (1:45) (two times)
e|--------------------|
B|--------------------|
G|----------7---------|
D|--2---5---7---2-----|
A|--2---5---5---2-----|
E|--0---3---5---0-----|

Interlude 2 (2:06)
e|--------------------------------------------------|
B|--------------------------------------------------|
G|--5--5-------------------7--7---------------------|
D|--5--5-------------------7--7---------------------|
A|--3--3--------2--2-----2-5--5--------2--2-----2---|
E|--------------0--0-----0-------------0--0-----0---|
               ******   ***           ******   ***
Interlude 2 Cont'd (2:11)
e|--------------------------------------------------|
B|--------------------------------------------------|
G|--------------------------------------------------|
D|--2--2--------------------------------------------|
A|--2--2--2-0---2----0-2------------2---------------|
E|--0--0------3----0-------0--2--3------------------|

Bridge (2:16)
e|--------------------------------------------------|
B|--------------------------------------------------|
G|--5-----------4---5----------------5-----------4--|
D|--5-----5-----4---5----------------5-----5-----4--|
A|--3-----5-----2---3----------2-----3-----5-----2--|
E|--------3-----------0--2--3--------------3--------|

Verse 3 (2:36) (two times)
e|--------------------------------------------------|
B|--------------------------------------------------|
G|--------------------------------------------------|
D|--2-2--2-2--2-2--2-2--2-2--2--2-2--2-2--2-2-2---2-|
A|--2-2--2-2--2-2--2-2--2-2--2--2-2--2-2--2-2-2-----|
E|--0-0--0-0--0-0--0-0--0-0--0--0-0--0-0--0-0-0-----|
                            ***
Verse 3 Cont'd (a) (2:41)
e|--------------------------------------------------|
B|--------------------------------------------------|
G|--5-5--5-5--5-5--5-5--5-5--5--5-5--5-5--5-5-5-----| play (b) on
D|--5-5--5-5--5-5--5-5--5-5--5--5-5--5-5--5-5-5-----| second time
A|--3-3--3-3--3-3--3-3--3-3--3--3-3--3-3--3-3-3---3-| through.
E|--3-3--3-3--3-3--3-3--3-3--3--3-3--3-3--3-3-3-----|
                            *** 
Verse 3 Cont'd (b) (2:51)                       HHHH
e|--------------------------------------------------|
B|-----------------------------------------------5-5| play it fast, or
G|--5-5--5-5--5-5--5-5--5-5--5--7-7--7-7--7-7-7-5-5-| put it together
D|--5-5--5-5--5-5--5-5--5-5--5--7-7--7-7--7-7-7-----| like  5-5
A|--3-3--3-3--3-3--3-3--3-3--3--5-5--5-5--5-5-5-----|       5-5
E|--3-3--3-3--3-3--3-3--3-3--3--5-5--5-5--5-5-5-----| sounds good both ways.
                            ***

Chorus 3 (2:56)
e|------------------------------------|
B|------------------------------------|
G|----------7-----9\---------7--------|
D|--2---5---7-----9\-2---5---7---2----|
A|--2---5---5-----7\-2---5---5---2----|
E|--0---3---5--------0---3---5---0----|

Outro (3:16)                                      1st end 2nd end
e|------------------------------------------------|-----|--------|
B|------------------------------------------------|-----|--------|
G|--5--5-------------------7--7-------------------|-----|--9\----|
D|--5--5-------------------7--7-------------------|--2--|--9\-2--|
A|--3--3--------2--2-----2-5--5--------2--2-----2-|--2--|--7\-2--|
E|--------------0--0-----0-------------0--0-----0-|--0--|-----0--|
               ******   ***           ******   ***

Well, that was fun. This is my first tab. 
I can't garuntee it's entirely accurate, but it's close.
If I made a mistake, you know what to do.



Comments about this tab

No comments/corrections found. Add your own



2005 ZMG, Inc.- All Right Reserved - Privacy Statement