Rockin Tabs Home

 :: Home > Tabs > U > U2 > Where The Streets Have No Names

U2 - Where The Streets Have No Names


This tab has not yet been rated for accuracy.Sorry, but you must be logged in to rate this tab so we can tell which songs you've already voted on, which will help prevent cheating.
Click here to log-in, or you can click here to register.
(Registration is free)


Click here for a plain text version of this song (for better printing)

Add this tab to your list of favorite tabs




#----------------------------------PLEASE NOTE---------------------------------#
#This file is the author's own work and represents their interpretation of the #
#song. You may only use this file for private study, scholarship, or research. #
#------------------------------------------------------------------------------#


u2
where the streets have no names

Intro

--------------------------------------------10-----------------------------
--------------------------------10----------------------10-----------------
-------12-----11------12---------------------------------------------------
---------------------------------------------------------------------------
---------------------------------------------------------------------------
---------------------------------------------------------------------------

Then The Edge starts strumming this:

-------10------------------------------------------------------------------
-------10------------------------------------------------------------------
-------12------------------------------------------------------------------
---------------------------------------------------------------------------
---------------------------------------------------------------------------
---------------------------------------------------------------------------

and then comes in on the following chord progression,which can be played
throughout the whole song...

d g bm a c

at the end he comes in on...

-----10--------------
-----10--------------
-----12--------------
---------------------
---------------------
---------------------

and at the VERY end RIGHT after that chord comes....
----10------------
----10------------
----11------------
------------------
------------------
------------------

 this is a great song. just listen to it to pick up when to change chords.



Comments about this tab

No comments/corrections found. Add your own



2005 ZMG, Inc.- All Right Reserved - Privacy Statement