Rockin Tabs Home

 :: Home > Tabs > C > Creed > Torn

Creed - Torn


This tab has not yet been rated for accuracy.Sorry, but you must be logged in to rate this tab so we can tell which songs you've already voted on, which will help prevent cheating.
Click here to log-in, or you can click here to register.
(Registration is free)


Click here for a plain text version of this song (for better printing)

Add this tab to your list of favorite tabs




#----------------------------------PLEASE NOTE---------------------------------#
#This file is the author's own work and represents their interpretation of the #
#song. You may only use this file for private study, scholarship, or research. #
#------------------------------------------------------------------------------#


*Torn*
Creed
       Transcribed by Billycorgan@sprynet.com
       http://home.sprynet.com/sprynet/billycorgan/creed.htm

Tuning: D A D G B E


INTRO/VERSE
|-----------------------0-----|
|-----------6-------------6---|
|-----7p5---------7p5-------5-|
|-0-------0----0------0-------|
|-----------------------------|
|-----------------------------|

last time..
|-0-0-0-0-0-0-0-0-|
|-6-6-6-6/8-8-8-8-|
|-5-5-5-5/7-7-7-7-|
|-----------------|
|-----------------|
|-----------------|


PRECHORUS - Distortion
|-------------------|
|-------------------|
|----------5--------|
|-3--------5--------|
|-3--------3--------|
|-3-----------------|

|-------------------------------------------------|
|-------------------------------------------------|
|-------------------------------------------------|
|-0-0-0-3-0-------------0-0-0-3-0-----------------|
|-0-0-0-3-0-3-4-5-0-3-4-0-0-0-3-0-3-4-5-0-5-4-3-0-|
|-0-0-0-3-0-------------0-0-0-3-0-----------------|


CHORUS
|------------------------------------------------------------------------|
|------------------------------------------------------------------------|
|---------5-5-5-5-----------------3-3-3-3---------2-2-2-2-2p0------------|
|-3-3-3-3-5-5-5-5-5-5-5-5-0-0-0-0-3-3-3-3-3-3-3-3-2-2-2-2-----2p0--------|
|-3-3-3-3-3-3-3-3-5-5-5-5-0-0-0-0-1-1-1-1-3-3-3-3-0-0-0-0---------3p0----|
|-3-3-3-3---------5-5-5-5-0-0-0-0---------3-3-3-3---------------------5b-|


VERSE 2 - Same


PRECHORUS 2 - Same


CHORUS 2 - Same


INTERLUDE
|-----------------------------------------------------------
|-----------------------------------------------------------
|-----------------------------------------------------------
|-----------------------------------------------------------
|-----------------------6-6-----6-6-------------4-4-5-4-3-0-
|-0-0-10-10-9-9-0-0-6-6-----6-6-----7-7-0-0-5-5-------------
pm.....................     ...         .......

 -----------------------------------------------------------------|
 -----------------------------------------------------------------|
 -----------------------------------------------------------------|
 ---------3-3-3-3---------3-3-3-3---------2-2-2-2---------2-2-2-2-|
 -----------------------------------------------------------------|
 -3-3-3-3---------3-3-3-3---------2-2-2-2---------2-2-2-2---------|
  .......         .......         .......         .......         


then it changes to the same thing with power chords and no palm nutes
|-----------------------------------------------------------
|-----------------------------------------------------------
|-----------------------8-8-----8-8-------------6-6-7-6-5---
|-0-0-10-10-9-9-0-0-6-6-8-8-6-6-8-8-7-7-0-0-5-5-6-6-7-6-5---
|-0-0-10-10-9-9-0-0-6-6-6-6-6-6-6-6-7-7-0-0-5-5-4-4-5-4-3-0-
|-0-0-10-10-9-9-0-0-6-6-----6-6-----7-7-0-0-5-5-------------

 ---------------------------------|
 ---------------------------------|
 ---------------------------------|
 -3-3-3-3-3-3-3-5-2-2-2-2-2-2-2-3-|
 -3-3-3-3-3-3-3-5-2-2-2-2-2-2-2-3-|
 -3-3-3-3-3-3-3-5-2-2-2-2-2-2-2-3-|


Then play the intro/verse riff again


CHORUS 3 - Same but clean
|-----------------------------------------------------------------|
|-6-6-6-6-5-5-5-5-8-8-8-8-3-3-3-3-3-3-3-3-6-6-6-6-2-2-2-2-2-2-2-2-|
|-5-5-5-5-5-5-5-5-7-7-7-7-2-2-2-2-3-3-3-3-5-5-5-5-2-2-2-2-2-2-2-2-|
|-3-3-3-3-5-5-5-5-5-5-5-5-0-0-0-0-3-3-3-3-3-3-3-3-2-2-2-2-2-2-2-2-|
|-3-3-3-3-3-3-3-3-5-5-5-5-0-0-0-0-1-1-1-1-3-3-3-3-0-0-0-0-0-0-0-0-|
|-3-3-3-3---------5-5-5-5-0-0-0-0---------3-3-3-3-----------------|


Then it play it with distortion again


Then play the distorted interlude once again


Finally end with the intro



Comments about this tab

No comments/corrections found. Add your own



2005 ZMG, Inc.- All Right Reserved - Privacy Statement