Rockin Tabs Home

 :: Home > Tabs > C > Creed > Stand Here With Me

Creed - Stand Here With Me


This tab has not yet been rated for accuracy.Sorry, but you must be logged in to rate this tab so we can tell which songs you've already voted on, which will help prevent cheating.
Click here to log-in, or you can click here to register.
(Registration is free)


Click here for a plain text version of this song (for better printing)

Add this tab to your list of favorite tabs




#----------------------------------PLEASE NOTE---------------------------------#
#This file is the author's own work and represents their interpretation of the #
#song. You may only use this file for private study, scholarship, or research. #
#------------------------------------------------------------------------------#


Creed
Stand Here With Me

I know Mark plays this song in open-D (D-A-D-F#-A-D), but for us guitarists
that only have one guitar and dont want to keep switching drastic tuning,
then this tab is for ya. I figured it out for Drop-D, it's easy to play and
is pretty accurate.

(Intro, Clean)
e-----------------------------------------------------------------------
b-----------------------------------------------------7----7/8---8-7----
g---------------------------------------11~~~~---7---------------7-7---7-
D----11h12-----11h12-----12h14--11h12----------5---5-----5-----5-------0-
A--0--------0---------0------------------------------------------------0-
D----------------------------------------------------------------------0-

e---------------------------------------------------------
b---------------------------------------------------------
g------------------6--7~~~----7------------------6--7/9~~~
D----------7--7/9-------------0----------7--7/9-----------
A--0--4h5---------------------0---0--4h5------------------
D-----------------------------0---------------------------

(Verse, Distortion) 
e---------------------------------------------------------------------------
b---------------------------------------------------------------------------
g------------------------------------11~~~~----------11-----12br-12p11------
D----11h12----11h12----12h14--11h12-------------12------12-------------12-12
A--0--------0--------0------------------------10--10------------------------
D---------------------------------------------------------------------------

e---------------------------------------------------------------
b---------------------------------------------------------------
g---------------------6--7br~~~------------------------6--7/9~~~
D--0----------7--7/9----------------0----------7--7/9-----------
A--0--0--4h5------------------------0--0--4h5-------------------
D--0--------------------------------0---------------------------

(Chorus)
e----------------------------------------------
b----------------------------------------------
g------555555------3--3------------------------
D------555555---5--3--3-------3--33-----3/5--55
A--0---333333---2--1--1--0-0--3--33--0--3/5--55
D--0----------0----------0-0--3--33--0--3/5--55
  p.m.                              (second time, back to verse)
e--------------------------------    
b--------------------------------
g--------------------------------
D--0-0-0---------0-0-0----------0    --0-0-0-------0-0-------
A--0-0-0---3h5---0-0-0---3h5-55-0    --0-0-0--3h5--0-0--3b--0
D--0-0-0---------0-0-0----------0    --0-0-0-------0-0-------
                               p.m
(Guitar Solo)
e---------------------------------------------------------------------------
b-------8--8----------------------------------------------------------------
g-7~~---9--9h10--7~~~---(7)/-------7--9--7h9p7---7--------------------------
D----------------------------------------------10-10-7--55--4p5p0-4p5p0-4p5p0
A----0-----------------------------------------------------------------------
D----------------------------------------------------------------------------

e------14b--15br--14~~--13----------------------
b--------------------------15--17----15---------
g---------------------------------17----17b--17br
D------------------------------------------------
A------------------------------------------------
D--0---------------------------------------------

e---------------------------------------------------
b--5-6--8p6p5--6------------------------------------
g-----------------7/9-----7~~-----7-10-7----7~~~(7)/
D---------------------10-------10--------10---------

e--14-12-14-----14-12-14-15----14-12-14-15-14-12-14-----
b-----------15~-------------------------------------15~~

e--14-12-14-15-----14-12-14-15-14-12-14-------
b----------------------------------------15~~~

e--14-12-14-15-----14-12-14-15-14-12-14
b--------------------------------------

e--17p14----14-17p14----14-17p14----14-17p14----14-19p14---14-17p14
b--------15----------15----------15----------15---------15---------

e--14-19p14----14-17p14----14---17b--17b--17b--17~~~~
b-----------15----------15---------------------------

From then on you can pretty much figure it out. God Bless.
Keep rockin' on for Christ!!

h-hammer on
p-pull off
b-bend string up
r-release bend
/-slide up
~-vibrato



Comments about this tab

No comments/corrections found. Add your own



2005 ZMG, Inc.- All Right Reserved - Privacy Statement