Rockin Tabs Home

 :: Home > Tabs > C > Creed > Ode

Creed - Ode


This tab has not yet been rated for accuracy.Sorry, but you must be logged in to rate this tab so we can tell which songs you've already voted on, which will help prevent cheating.
Click here to log-in, or you can click here to register.
(Registration is free)


Click here for a plain text version of this song (for better printing)

Add this tab to your list of favorite tabs




#----------------------------------PLEASE NOTE---------------------------------#
#This file is the author's own work and represents their interpretation of the #
#song. You may only use this file for private study, scholarship, or research. #
#------------------------------------------------------------------------------#


*Ode*
Creed

      Transcribed by Billycorgan@sprynet.com
      http://home.sprynet.com/sprynet/billycorgan/creed.htm

Tuning: D A D G B E


INTRO
|---------------------------------|
|---------------------------------|
|---------------------------------|
|-0-0-0-7-0-6-----0-0-0-7-0-6-0-4-|
|---------------------------------|
|---------------------------------|

|---------------------------------|
|---------------------------------|
|---------------------------------|
|-0-0-0-7-0-6-0-4-0-5-0-2-0-3-2-1-|
|---------------------------------|
|---------------------------------|
palm mute throughout..............

2nd guitar plays these harmonics at the end
|-----------------------|
|-7-7----7-7----7-7-7-7-|
|-----------------------|
|-----------------------|
|-----------------------|
|-----------------------|


VERSE
|---------------------------------|
|---------------------------------|
|---------------------------------|
|-0-0-0-7-0-6-0-4-0-5-0-2-0-3-2-1-|
|-0-0-0-7-0-6-0-4-0-5-0-2-0-3-2-1-|
|-0-0-0-7-0-6-0-4-0-5-0-2-0-3-2-1-|


CHORUS
|-----------------------------------------------|
|-----------------------------------------------|
|-----------------------------------------------|
|-0-0-0-0-2-2-2-2-5-5-5-5--------3--------3-----|
|-0-0-0-0-2-2-2-2-5-5-5-5-5--3h5---5--3h5---5-3-|
|-0-0-0-0-2-2-2-2-5-5-5-5-----------------------|

|-------------------------------------------------------|
|-------------------------------------------------------|
|-------------------------------------------------------|
|-0-0-0-0-2-2-2-2-5-5-5-5-------3h4h5-------3h4h5-------|
|-0-0-0-0-2-2-2-2-5-5-5-5-3h4h5-------3h4h5-------3h5p3-|
|-0-0-0-0-2-2-2-2-5-5-5-5-------------------------------|

|-----------------------------------------------|
|-----------------------------------------------|
|-----------------------------------------------|
|-0-0-0-0-2-2-2-2-5-5-5-5--------3--------3-----|
|-0-0-0-0-2-2-2-2-5-5-5-5-5--3h5---5--3h5---5-3-|
|-0-0-0-0-2-2-2-2-5-5-5-5-----------------------|

|-------------------------|
|-------------------------|
|-------------------------|
|-0-0-0-0-2-2-2-2-5-5-5-5-|
|-0-0-0-0-2-2-2-2-5-5-5-5-|
|-0-0-0-0-2-2-2-2-5-5-5-5-|

|----------------------------------------------------------------------|
|----------------------------------------------------------------------|
|----------------------------------------------------------------------|
|-5/7-7-5/7-7-5/7-7-5/7-7-5/7-5/7-5/7-7-5/7-7-5/7-7-5/7-7/10-10-10-9-8-|
|-3/5-5-3/5-5-3/5-5-3/5-5-3/5-3/5-3/5-5-3/5-5-3/5-5-3/5-5/8--8--8--7-6-|
|----------------------------------------------------------------------|


Then play this second half of the intro again
|---------------------------------|
|---------------------------------|
|---------------------------------|
|-0-0-0-7-0-6-0-4-0-5-0-2-0-3-2-1-|
|---------------------------------|
|---------------------------------|
palm mute throughout..............

2nd guitar plays these harmonics at the end
|-----------------------|
|-7-7----7-7----7-7-7-7-|
|-----------------------|
|-----------------------|
|-----------------------|
|-----------------------|


VERSE 2 - Same


CHORUS 2 - Same but end with this instead
|-------------------------------|
|-------------------------------|
|-------------------------------|
|-------3h4h5-------3h4h5-------|
|-3h4h5-------3h4h5-------3h5p3-|
|-------------------------------|


BRIDGE
 Guitar 1
|----------------------------------------------------------------------|
|----------------------------------------------------------------------|
|----------------------------------------------------------------------|
|-5/7-7-5/7-7-5/7-7-5/7-7-5/7-5/7-5/7-7-5/7-7-5/7-7-5/7-7/10-10-10-9-8-|
|-3/5-5-3/5-5-3/5-5-3/5-5-3/5-3/5-3/5-5-3/5-5-3/5-5-3/5-5/8--8--8--7-6-|
|----------------------------------------------------------------------|
|Guitar 2
|----------------------------------------------------------------------|
|----------------------------------------------------------------------|
|----------------------------------------------------------------------|
|-0-----------------------------------------------------0h3--3--3--2-1-|
|-0-----------------------------------------------------0h3--3--3--2-1-|
|-0-----------------------------------------------------0h3--3--3--2-1-|


CHORUS 3 - Same


OUTRO
 Guitar 1
|----------------------------------------------------------------------|
|----------------------------------------------------------------------|
|----------------------------------------------------------------------|
|-5/7-7-5/7-7-5/7-7-5/7-7-5/7-5/7-5/7-7-5/7-7-5/7-7-5/7-7/10-10-10-9-8-|
|-3/5-5-3/5-5-3/5-5-3/5-5-3/5-3/5-3/5-5-3/5-5-3/5-5-3/5-5/8--8--8--7-6-|
|----------------------------------------------------------------------|
|Guitar 2
|----------------------------------------------------------------------|
|----------------------------------------------------------------------|
|----------------------------------------------------------------------|
|-0-----------------------------------------------------0h3--3--3--2-1-|
|-0-----------------------------------------------------0h3--3--3--2-1-|
|-0-----------------------------------------------------0h3--3--3--2-1-|

Then change to this

 Guitar 1
|----------------------------------------------------------------------|
|----------------------------------------------------------------------|
|----------------------------------------------------------------------|
|-7-----------------------------------------------------7/10-10-10-9-8-|
|-5-----------------------------------------------------5/8--8--8--7-6-|
|-0--------------------------------------------------------------------|
|Guitar 2
|----------------------------------------------------------------------|
|----------------------------------------------------------------------|
|----------------------------------------------------------------------|
|-0-----------------------------------------------------0h3--3--3--2-1-|
|-0-----------------------------------------------------0h3--3--3--2-1-|
|-0-----------------------------------------------------0h3--3--3--2-1-|

End on..
  Guitar 1
|---|
|---|
|---|
|-7-|
|-5-|
|-0-|
| Guitar 2
|---|
|---|
|---|
|-0-|
|-0-|
|-0-|



Comments about this tab

No comments/corrections found. Add your own



2005 ZMG, Inc.- All Right Reserved - Privacy Statement