Rockin Tabs Home

 :: Home > Tabs > C > Creed > My Sacrifice

Creed - My Sacrifice


This tab has not yet been rated for accuracy.Sorry, but you must be logged in to rate this tab so we can tell which songs you've already voted on, which will help prevent cheating.
Click here to log-in, or you can click here to register.
(Registration is free)


Click here for a plain text version of this song (for better printing)

Add this tab to your list of favorite tabs




#----------------------------------PLEASE NOTE---------------------------------#
#This file is the author's own work and represents their interpretation of the #
#song. You may only use this file for private study, scholarship, or research. #
#------------------------------------------------------------------------------#


Artist: Creed
Song: My Sacrifice
Tuning: Open D5 (D A D A D D)

A note for beginners:

to put your guitar into open d5, tune the 6th string (low E) down two
frets (make the 7th fret on low E sound like the open A string). leave
the next two as they are, and tune the 3rd (G) string to the 7th fret on
the 4th (D) string.  then tune the 2nd (B) string up to the 5th fret on
the 3rd (now A) string, then make the 1st (E) string sound exactly like
the 2nd (now D) string.

key:

~=hold note
x=mute string
h=hammer on
p=pull off
\=slide down
/=slide up

Intro:

d-----0-----------------0-0-0~--0-0-0~--------0-----------------
D------0--------7---7---0-0-0~--0-0-0~---------0--------7---7---
A--4----4------5-5---5~-5\4/5~--5\4/9~-----4----4------5-5---5~-
D---4----4~---5---5~----0-0-0~--0-0-0~------4----4~---5---5~----
A-2--2------0-----------5\4/5~--5\4/9~--0-2--2------0-----------
D------------5~--------------------------------------5~---------

Verses & last part of intro (with distortion):

-0-0-0-0-0~--0-0-0-0-5-5-
-0-0-0-0-0~--0-0-0-0-5-5-
-5\4/5-5/7\5-x-x-x-x-5-5-    X3
-0-0-0-0-0~--4-4-4/7-5-5-
-5\4/5-5/7\5-2-2-2/5-5-5-
-0-0-0-0-0~--0-0-0-0-5-5-

Chorus:

-0-0-7-5-4-0-0-0-0-------0-------0-------0-------5-5p3p0h3-5-3-0~-
-0-0-0-0-0-0-0-0-0-------0-------0-------0-------5-5p3p0h3-5-3-0~-
-5-5-5-5-5-0-0-0-0-------0-------0-------0-------5-5p3p0h3-5-3-0~-
-0-0-0-0-0-x-x-x-9h11h12-9h11h12-9h11h12-9h11h12-5-5p3p0h3-5-3-0~-
-0-0-0-0-0-4-4-4-9-------9-------9-------9-------5-5p3p0h3-5-3-0~-
-0-0-0-0-0-0-0-0-9-------9-------9-------9-------5-5p3p0h3-5-3-0~-

Riff 1:

-0-0-0-0--0-0-0-0--0-0-0-0--0-0-0-0-0-0-0-0-
-0-0-0-0--0-0-0-0--0-0-0-0--0-0-0-0-0-0-0-0-
-9\7-7-7--7\5-5-5--5\4-4-4--4-4\2/4/5\4/7\5-
-0-0-0-0--0-0-0-0--0-0-0-0--0-0-0-0-0-0-0-0-
-9\7-7-7--7\5-5-5--5\4-4-4--4-4\2/4/5\4/7\5-
-0-0-0-0--0-0-0-0--0-0-0-0--0-0-0-0-0-0-0-0-

Riff 2:

-0-0-0-0--0-0-0-0--0-0-0-0--0-0-0-0-
-8-8-8-8--8-8-8-8--8-8-8-8--8-8-8-8-
-x-x-x-x--x-x-x-x--x-x-x-x--x-x-x-x-
-8-8-8-8--8-8-8-8--8-8-8-8--8-8-8-8-
-x-x-x-x--x-x-x-x--x-x-x-x--x-x-x-x-
-0-0-0-0--0-0-0-0--0-0-0-0--0-0-0-0-

End:

-0-
-0-
-0-
-0-

-0-
-0-

Order:

Intro
Verse (X3)
Chorus (X2)
Verse (X3)
Chorus (X2)
Riff 1 (X4)
Riff 2
Chorus (Clean X2, Distortion X2)
Riff 1 (X3)
Riff 2
End



Comments about this tab

No comments/corrections found. Add your own



2005 ZMG, Inc.- All Right Reserved - Privacy Statement