Rockin Tabs Home

 :: Home > Tabs > C > Creed > My Sacrifice

Creed - My Sacrifice


This tab has not yet been rated for accuracy.Sorry, but you must be logged in to rate this tab so we can tell which songs you've already voted on, which will help prevent cheating.
Click here to log-in, or you can click here to register.
(Registration is free)


Click here for a plain text version of this song (for better printing)

Add this tab to your list of favorite tabs




#----------------------------------PLEASE NOTE---------------------------------#
#This file is the author's own work and represents their interpretation of the #
#song. You may only use this file for private study, scholarship, or research. #
#------------------------------------------------------------------------------#


Song: My Sacrifce
Band: Creed
Album: Weathered
Tabbed by:  Alejandro D'Brot 
	    alexd@terra.com


h= hammer-on 
/= slide up
\= slide down 
PM.= palm mute
()= ghost note, play very softly

Tuning: Guitar DADGBd

[ intro ] 
(clean & with delay)

I:
d|-----------0--------------------0----------| 
B|---2-----3---2-----------------------------|
G|-----------------------------14------14----|
D|-----4---------4----------12------12----12-|
A|-2-----2------------0--10------------------|
D|-------------------------------------------|

II: 
(struming, without delay)

d|------0----0----0-----0-0-0-0-0-------0-----| 
B|-0-0--x----x----x-----x-x-x-x-x-------x-----|
G|-2-2--7\6--6/7--7-----7-7-6-6-7/-11---11/12-|
D|-0-0--0----0----0---0-0-0-0-0-0--0----x-----|
A|-0-0--5\4--4/5--5---5-5-5-4-4-5/-9----9-/10-|
D|------0----0----0-----0-0-0-0-0-------0-----|

III:
d|-------------0---------------------0----------| 
B|-----------3---2------------------------------|
G|------2-------------------------14------14----|
D|-0------4--------4-----------12------12----12-|
A|-0--2-----2------------0---10-----------------|
D|----------------------------------------------|


...let ring...
...now kick in with distortion...

[ main riff ]
(struming, with distortion)

d|-----------0--0------0--0-----|-----------0--0------0-------|
B|-----------0--0------0--0-----|-----------0--0------0-------|
G|-7\6--6/7--7--7--6-6-7--7/9\7-|-7\6--6/7--7--7--6-6-7--6-2--|
D|-0----0----0--0--0-0-0--0-----|-0----0----0--0--0-0-0--0-0--|
A|-5\4--4/5--5--5--4-4-5--5/7\5-|-5\4--4/5--5--5--4-4-5--4-0--|
D|-0----0----0--0--0-0-0--0-----|-0----0----0--0--0-0-0--0----|

d|----0-0-0--0 0---0----0--0--0--0-0-0-0-0-------|
B|----0-0-0--0-0---0----x--x--x--x-x-x-x-x-------|
G|-4--4-4-4--4-4---4/12-12-12-12-1212121212------|
D|-4--4-4-4--4-4---4/12-12-12-12-1212121212-0-0--|
A|-2--2-2-2--2-2---2/10-10-10-10-1010101010-0-0--|
D|------------------------------------------0-0--|
				         PM.จจจ 
...play that two more times...


[ chorus ]
(strumming, with distortion)

d|-0--0--0--0--0-0--0--0--0--0-0--0-0----------------------------------------| 
B|-0--0--0--0--0-0--0--0--0--0-0--0-0-----3--3--3-3--3-----------------------|
G|-7--7--7--7--7-7--7--7--7--7-7--7-7--4--4--4--4-4--4---------**-***--------|
D|-0--0--0--0--0-0--0--0--0--0-0--0-0--4--4--4--4-4--4--5--5-5-00-540-4--5/4-|
A|-0--0--4/50--0-0--4--4--4--4-4--4-4--2--2--2--2-2--2--5--5-5-00-540-4--5/4-|
D|-0--0--0--0--0-0--0--0--0--0-0--0-0--0--0--0--0-0--0--5--5-5-00-540-4--5/4-|
							     PM.จ   
d|-0--0--0--0--0-0--0--0--0--0-0--0-0-----------------------------------| 
B|-0--0--0--0--0-0--0--0--0--0-0--0-0-----3--3--3-3--3--8--8-8----------|
G|-7--7--7--7--7-7--7--7--7--7-7--7-7--4--4--4--4-4--4--7--7-7-**-***---|
D|-0--0--0--0--0-0--0--0--0--0-0--0-0--4--4--4--4-4--4--5--5-5-00-540-4-|
A|-0--0--4/50--0-0--4--4--4--4-4--4-4--2--2--2--2-2--2--5--5-5-00-540-4-|
D|-0--0--0--0--0-0--0--0--0--0-0--0-0--0--0--0--0-0--0--5--5-5-00-540-4-|
							     PM.จ   

[* these are each separate chords, but to show the time, I put them close together ]

...then play the main riff three times... 

...and then play the chorus...
...but replace the very last part of the chorus with this...

d|-----------------| 
B|-----------------|
G|-**-***----------|
D|-00-540-4--5/4-0-|
A|-00-540-4--5/4-0-|
D|-00-540-4--5/4-0-|
 PM.จ	      PM.จ

...and now the bridge...

[ bridge ]
(distortion)

d|--------------------------------------------------------------| 
B|--------------------------------------------------------------|
G|-11/9-9-9----9/7-7-7----7/6-6-6-----4/6-6/7-7/6-6/9-9/7-7-7---|
D|--0---0-0-0--0---0-0-0--0---0-0-0-0-0---0---0---0---0---0-0-0-|
A|--9/7-7-7-0--7/5-5-5-0--5/4-4-4-0-0-2/4-4/5-5/4-4/7-7/5-5-5-0-|
D|--0---0-0-0--0---0-0-0--0---0-0-0-0-0---0---0---0---0---0-0-0-|
         PM.จ       PM.จ       PM.จจจ	                   PM.จ

...play that three more times...

...then play this...

d|-8-8-8-8-----8-8-8-8----8-8-8-8-----8-8-8-8---------------| 
B|-11111111----11111111---11111111----11111111--------3-----|
G|-10101010----10101010---10101010----10101010--------2-----|
D|-0-0-0-0--0--0-0-0-0----0-0-0-0--0--0-0-0-0--0-0-0--0-----|
A|----------0----------------------0-----------5-4-0--0-----|
D|----------0----------------------0-----------0-0-0--0-----|
         PM.จ		        PM.จ	    PM.จจจจจ		
 
..let ring and then play this...
(clean, struming)

d|-0--0--0-0--7--5--x--0--0--0--0-0--0-0------0--0------------| 
B|-0--0--0-0--x--x--7--0--0--0--0-0--0-0------3--3-------3----|
G|-7--7--7-7--7--7--7--7--7--7--7-7--7-7--4---4--4---4----(4)-|
D|-7--7--7-7--7--7--7--0--0--0--0-0--0-0--4---4--4-4---4------|
A|-5--5--5-5--5--5--5--4--4--4--4-4--4-4--2---2--2------------|
D|------------------------------------------------------------|

d|-0--0-0------------| 
B|-8--8-8------------|
G|-7--7-7-7--7-7-7-7-|
D|-5--5-5-7h99-9-7-7-|
A|-5--5-5-5--5-5-5-5-|
D|-5--5-5-5--5-5-5-5-|
        ^ 
...then play second time with delay at the end, stop at the ^ and play this instead...

d|-----------------| 
B|-----------------|
G|-----------------|
D|-0-0-0-0-0-0-0-0-|
A|-7-7-5-5-4-4-0-0-|
D|-0-0-0-0-0-0-0-0-|
PM.จจจจจจจจจจจจจจจ

[ this is the part when the soft part turns into the chorus (listen to the song) ]

...put on distortion and play the chorus once, with the change at the end...
...then play the first part of the bridge three times, 
   and then play the second part once...

...



Comments about this tab

No comments/corrections found. Add your own



2005 ZMG, Inc.- All Right Reserved - Privacy Statement