Rockin Tabs Home

 :: Home > Tabs > C > Creed > My Own Prison

Creed - My Own Prison


This tab has not yet been rated for accuracy.Sorry, but you must be logged in to rate this tab so we can tell which songs you've already voted on, which will help prevent cheating.
Click here to log-in, or you can click here to register.
(Registration is free)


Click here for a plain text version of this song (for better printing)

Add this tab to your list of favorite tabs




#----------------------------------PLEASE NOTE---------------------------------#
#This file is the author's own work and represents their interpretation of the #
#song. You may only use this file for private study, scholarship, or research. #
#------------------------------------------------------------------------------#


Song: My Own Prison
Artist: Creed 
Album: My Own Prison
by Scott Stapp and Mark Tremonti
Transcribed by Calvin Krishen(spoonman82@hotmail.com)

Key:

h - hammer on
p - pull off
\ down slide
/ upslide
^ bend half step
() optional note
~ vibrato

I read the other tab posted for this song - but i thought it was a little
off and made the song more complicated than it was.  It was a good tab
tho.  Anyways - here's my way of playing it.


Intro:

e------------------------------3-3----------------------------- 
b------3-3---------------------6-6----------------------------- 
g------2-2-----------0---------5-5----------------------------- 
d--0---0-0-------0h3---3p0--3--3-3-----------------0-----------
a-----------0h1-------------3--3-3---0-3/5\3p0-----------------
D---0-----------------------3--3-3--------------3-----0-------- 

Verse:
(same thing as the intro basically)

e------------------------------3-3----------------------------- 
b------3-3---------------------6-6----------------------------- 
g------2-2-----------0---------5-5----------------------------- 
d------0-0-------0h3---3p0-(3)-3-3-----------------0-----------
a-----------0h1------------(3)-3-3---0-3/5\3p0-----------------
D---0-----------------------3--3-3--------------3-------------- 

Chorus:
(here are the chords, figure out the strumming pattern by listening to the song)

e---3---2---1---0----------------------------------------------
b---6---5---4---3---3/6----------------------------------------
g---5---4---3---2---2/5----------------------------------------
d---3---2---1---0----------------------------------------------
a---3---2---1---0----------------------------------------------
D---3---2---1---0----------------------------------------------

keep the guitar clean after the first verse - but after that - use distortion.

Riff 1:

e---------------------------------------------------------------
b---------------------------------------------------------------
g--------------3--3-3-------------------------------------------
d--0--0--0-0---3--3-3---3--3--3-------------------0-------------
a--0--0--0-0---1--1-1---3--3--3----0h3/5\3p0--------------------
D--0--0--0-0------------3--3--3----------------3------0---------

Riff 2:

e--------------------------------------------------------------- 
b--------------------------------------------------------------- 
g------------10--10p7------------------10--10p7----------------- 
d--7~~-7-7h8-----------8--7~~---7--7h8----------7~~------------- 
a---------------------------------------------------------------
D---------------------------------------------------------------

e--------------------------------------------------------------- 
b--------------------------------------------------------------- 
g------------10---10~~----------10~~---------------------------- 
d--7~~-7-7h8----8--------7-7p8---------------------------------- 
a---------------------------------------------------------------
D---------------------------------------------------------------

Riff 3:
(strum this while the other guitar plays Riff 2)

e---3-----3-------------------------------------------------------
b---6-----6-------------------------------------------------------
g---5--3--5--5----------------------------------------------------
d---3--1--3--3----------------------------------------------------
a---3--1--3--3----------------------------------------------------
D---3-----3-------------------------------------------------------

Riff 4:

e-------------------------------------------------------------
b-------------------------------------------------------------
g---------5-5-5--------3-3-3----------------------------------
d---3-3-3-3-3-3-0-0-0--1-1-1----------------------------------
a---3-3-3-3-3-3-0-0-0--1-1-1----------------------------------
D---3-3-3-------0-0-0-----------------------------------------

Riff 5:
(play this during riff 4)
e--------------------------------------------------------------- 
b--------------------------------------------------------------- 

g-------------------10~~---------------------------------------- 
d-7~~-7~~-7~~-7-7h8--------------------------------------------- 
a---------------------------------------------------------------
D---------------------------------------------------------------

Riff 6:
(play this after riff 5)
e----------------------------------------------------------------
b----------------------------------------------------------------
g--10------10-----10-----------10~~------------------------------
d-----8-7-----8-7----8-7--7p8------------------------------------
a----------------------------------------------------------------
D----------------------------------------------------------------

Outro:

e-------------------------------------------------------------------
b-------------------------------------------------------------------
g-------------------------------------------------------------------
d---3-3-3-3-2-2-2-2-2h3p0-1-1-1-1--0--------------------------------
a---3-3-3-3-2-2-2-2-2h3p0-1-1-1-1--0--------------------------------
D---3-3-3-3-2-2-2-2-2h3p0-1-1-1-1--0--------------------------------

Song Order(i know you guys are probably confused by now)

Intro
Verse
Chorus
Verse
Riff 1
Chorus
Riff 2 & Riff 3
Riff 4 & Riff 5 & Riff 6
Chorus(you'll here small variations of riff 5 and 6 played in this part)
Outro

Ok - thats it - i hope ya liked what i did.  Please send suggestions
or corrections to me(spoonman82@hotmail.com)



Comments about this tab

No comments/corrections found. Add your own



2005 ZMG, Inc.- All Right Reserved - Privacy Statement