Rockin Tabs Home

 :: Home > Tabs > C > Creed > My Own Prison

Creed - My Own Prison


This tab has not yet been rated for accuracy.Sorry, but you must be logged in to rate this tab so we can tell which songs you've already voted on, which will help prevent cheating.
Click here to log-in, or you can click here to register.
(Registration is free)


Click here for a plain text version of this song (for better printing)

Add this tab to your list of favorite tabs




#----------------------------------PLEASE NOTE---------------------------------#
#This file is the author's own work and represents their interpretation of the #
#song. You may only use this file for private study, scholarship, or research. #
#------------------------------------------------------------------------------#


My Own Prison 
Creed 

Dropped D Tuning: 
(low to high: D A D G B E) 

Chords used: 

--------------D A D G B E 

D5 (type 1)   0 0 0 X X X 
D5 (type 2)   0 5 7 7 X X 
F5            3 3 3 5 X X 
C5/E          2 3 5 X X X 
B5            X 1 3 3 X X 
Eb5 (type 1)  1 1 1 3 X X 
Eb5 (type 2)  X 6 8 8 X X 
E5            2 2 2 4 X X 




Riff A>intro riff 

D5    Bb5            F5 

E |---------------------|---------------------| 
B |---------------------|---------------------| 
G |----------------0----|-5-------------------| 
D |--0---------0h3---3--|-3-------------0-----| 
A |--0-----0h1---------0|-3---3h5-3-----------| 
D |--0------------------|-3---------5-3-------| 

repeat Riff A through the verses. 

Verse 1: w/riff A 

D5 Bb5 F5
D5 Bb5 F5
D5 Bb5 F5
D5 Bb5 F5
D5 Bb5 F5
D5 Bb5 F5
D5 Bb5 F5
D5 Bb5 F5

Chorus:
F5 C5/E 
Eb5 
D5 
F5 C5/E 
Eb5 
D5 

(Play intro riff once between chorus and verse 3)

Verse 2: w/riff A 
D5 Bb5 F5
D5 Bb5 F5
D5 Bb5 F5
D5 Bb5 F5

w/distortion: w/riff A 
D5 Bb5 F5
D5 Bb5 F5
D5 Bb5 F5
D5 Bb5 F5 

Chorus:
F5 C5/E 
Eb5 
D5 
F5 C5/E 
Eb5 
D5 

Riff B / solo 

E |----------------|-----------------|------------------| 
B |----------------|-----------------|------------------| 
G |-------10-10----|------10-10------|------10-10---10--| 
D |-7-7h8----------|7-7h8-------8----|7-7h8-------7-----| 
A |----------------|-----------------|------------------| 
D |----------------|-----------------|------------------| 

Riff B / build up>add phaser with distortion 

E |----------------|-----------------|------------------| 
B |----------------|-----------------|------------------| 
G |-------10-10----|------10-10------|------10-10---10--| 
D |-7-7h8----------|7-7h8-------8----|7-7h8-------7-----| 
A |----------------|-----------------|------------------| 
D |----------------|-----------------|------------------| 



Bridge: w/Riff B
F5 C5 D5 
Bb5 F5 C5 D5 Bb5 
F5 C5 D5
Bb5 F5 C5 D5 Bb5                                                               
|-------------------------| 
|-------------------------| 
|10------10------10-------| 
|---8-7-----8-7-----8-7-7-| 
|-------------------------| 
|-------------------------| 

Chorus:
F5 C5/E 
Eb5 
D5 
F5 C5/E 
Eb5 
D5 

Outro:
F5 C5/E 
Eb5 D5 

retard ending (slow down) 
______________________________________________________________________ 

written by Tremonti/Stapp 
copyright Tremonti/Stapp Music 
published by Tremonti/Stapp Music 
(adm. by Dwight Frye Music, Inc.)/ 
Dwight Frye Music, Inc. (BMI) 

tabbed by Daniel Thomas 
e-mail: Dthomas1352@aol.com 


I believe this is pretty accurate...it took me hours to 
figure out and perfect.  One of these days I'll invest 
in a creed songbook. 

play this song with the cd and make sure it sounds right. 

If you've noticed any imperfections in this tableture... 
please e-mail me...thanks for your help. 

^ 
0 
\ / 
| 
/ \ enjoy the song!  God Bless Creed fans!



Comments about this tab

No comments/corrections found. Add your own



2005 ZMG, Inc.- All Right Reserved - Privacy Statement