Rockin Tabs Home

 :: Home > Tabs > C > Creed > My Own Prison

Creed - My Own Prison


This tab has not yet been rated for accuracy.Sorry, but you must be logged in to rate this tab so we can tell which songs you've already voted on, which will help prevent cheating.
Click here to log-in, or you can click here to register.
(Registration is free)


Click here for a plain text version of this song (for better printing)

Add this tab to your list of favorite tabs




#----------------------------------PLEASE NOTE---------------------------------#
#This file is the author's own work and represents their interpretation of the #
#song. You may only use this file for private study, scholarship, or research. #
#------------------------------------------------------------------------------#


Title: My Own Prison
Artist: Creed
Album: My Own Prison
Transcribed by: Josh Wyse
Email: wyseguycs@usa.net

Mark Tremonti uses the neck pickup of his Gibson Les Paul for most of
this song.  He plays it clean until halfway through Verse 3, then kicks
in a lot of distortion.

Drop D Tuning: DADGBE

Chords used:
    D5    F5   C5/E  Eb5     Bb5
E|-----|-----|-----|-----|---------|
B|-----|-----|-----|-----|---------|
G|--2--|--5--|--5--|--3--|-3----10-|
D|--0--|--3--|--5--|--1--|-3-or-8--|
A|--0--|--3--|--3--|--1--|-1----8--|
E|--0--|--3--|--2--|--1--|------8--|


Intro:
 { Riff A                                                 end Riff A }
   D5                Bb5             F5
E|---------------------------------|---------------------------------|
B|---------------------------------|---------------------------------|
G|---------------2-----------0-----|---------5-----5-----------------|
D|---------0-----0-------0h3---3---|---------3-----3---3-------------|
A|-5-------0-----0---0h1---------0-|-3-------3-----3---3-3h5-3-------|
D|-0-------0-----------------------|-3-------3-----------------5-3---|


Verse 1: (w/Riff A 4x)
D5 Bb5 F5
D5 Bb5 F5
D5 Bb5 F5
D5 Bb5 F5

Verse 2: (w/Riff A 4x)
D5 Bb5 F5
D5 Bb5 F5
D5 Bb5 F5
D5 Bb5 F5

Chorus:
F5 C5/E
Eb5
D5
F5 C5/E
Eb5
D5

Play intro riff once between chorus and verse 3

Verse 3:
D5 Bb5 F5
D5 Bb5 F5
D5 Bb5 F5
D5 Bb5 F5

w/distortion:
D5 Bb5 F5
D5 Bb5 F5
D5 Bb5 F5
D5 Bb5 F5

Chorus:
F5 C5/E
Eb5
D5
F5 C5/E
Eb5
D5


Interlude:
   F5                  C5            D5                  Bb5
E|---------------------------------|---------------------------------|
B|---------------------------------|---------------------------------|
G|-5---5-5-5---5-5-5-5-------------|-2---2-2-2---2-2-2-2-------------|
D|-3---3-3-3---3-3-3-3-5---5-5-5-5-|-0---0-0-0---0-0-0-0-3---3-3-3-3-|
A|-3---3-3-3---3-3-3-3-3---3-3-3-3-|-0---0-0-0---0-0-0-0-1---1-1-1-1-|
E|-3---3-3-3---3-3-3-3-------------|-0---0-0-0---0-0-0-0-------------|
 |
 { Riff B -------------------------}
E|---------------------------------|---------------------------------|
B|-w/phaser----------------6---6---|-------------------------6---6---|
G|---------------------------------|---------------------------------|
D|-7-------------------7h8-------8-|-7-------------------7h8-------8-|
A|-------------------0-------------|-------------------0-------------|
D|---------------------------------|---------------------------------|


   F5                  C5            D5                  Bb5
E|---------------------------------|---------------------------------|
B|-------------------------6---6---|-6-------------6---------6---6---|
G|---------------------------------|---------------------------------|
D|-7-------------------7h8-------8-|---------7-----------7h8-------8-|
A|-------------------0-------------|---------------------------------|
D|---------------------------------|---------------------------------|


Bridge: w/Riff B 7x
F5 C5 D5 
Bb5 F5 C5 D5 Bb5
F5 C5 D5 
Bb5 F5 C5 D5 Bb5
|-----------------|
|-6--6--6--6--6---|
|-----------------|
|--87-87-87-87-88-|
|-----------------|
|-----------------|

Chorus:
 { Riff C
   F5                                C5/E
E|---------------------------------|---------------------------------|
B|-------------------------6-------|---------------------------------|
G|---------------------------------|---------------------------------|
D|-7-------7---7-7-----7h8-----7---|-5-------5---5-5---5-5---5---5---|
A|-------------------0-------------|---------------------------------|
D|---------------------------------|---------------------------------|
           
                                                       end of Riff C }
   Eb5                               D5
E|---------------------------------|---------------------------------|
B|-------------------------6-------|-------------------------6-------|
G|---------------------------------|---------------------------------|
D|-5-------5---5-5-----7h8-----8---|-7-------7---7-7-/---7h8-----7---|
A|-------------------0-------------|-------------------0-------------|
D|---------------------------------|---------------------------------|



w/Riff C:
F5 C5/E
Eb5
D5
F5 C5/E
Eb5
D5

Outro:
F5 C5/E
Eb5 D5



Comments about this tab

No comments/corrections found. Add your own



2005 ZMG, Inc.- All Right Reserved - Privacy Statement