Rockin Tabs Home

 :: Home > Tabs > C > Creed > Lullaby

Creed - Lullaby


This tab has not yet been rated for accuracy.Sorry, but you must be logged in to rate this tab so we can tell which songs you've already voted on, which will help prevent cheating.
Click here to log-in, or you can click here to register.
(Registration is free)


Click here for a plain text version of this song (for better printing)

Add this tab to your list of favorite tabs




#----------------------------------PLEASE NOTE---------------------------------#
#This file is the author's own work and represents their interpretation of the #
#song. You may only use this file for private study, scholarship, or research. #
#------------------------------------------------------------------------------#


Title: Lullaby
Album: Weathered
Artist: Creed

It's a lot easier to play this song this way instead of using the other tab...
you don't have to move your fingers so much, which allows for smoother playing.

------------|----0----------0-|--|
3-2-2-0-0---|3-2---3--0---3--3|--|
---------2-2|-------2--2------|--|
------------|-----------------|0-|
2---0-------|2---0------------|-0|
--------3---|-----------------|--|

------------|----0----------|--|
3-2-2-0-0---|3-2---3--0---3-|--|
---------2-2|-------2--2----|--|
------------|---------------|0-|
2---0-------|2---0----------|-0|
--------3---|---------------|--|

------------|------------------0----|--|
3-2-2-0-0---|----------2/4-2-3/--3--|--|
---------2-2|0----------------------|--|
------------|--4-2-0-0--------------|0-|
2---0-------|-----------------------|-0|
--------3---|0----------------------|--|

	   x2
----------------|2-3----|
---0---2-3-2-2-0|----2-3|
0----2----------|-------|
--4-------------|-------|
----------------|-------|
----------------|-------|
		x3 	(end song x8)
----------|-------|
----------|4h5-4--|
0---------|------5|
--4-2-0-0-|-------|
----------|-------|
----------|-------|



Comments about this tab

No comments/corrections found. Add your own



2005 ZMG, Inc.- All Right Reserved - Privacy Statement