Rockin Tabs Home

 :: Home > Tabs > C > Creed > Is This The End

Creed - Is This The End


This tab has not yet been rated for accuracy.Sorry, but you must be logged in to rate this tab so we can tell which songs you've already voted on, which will help prevent cheating.
Click here to log-in, or you can click here to register.
(Registration is free)


Click here for a plain text version of this song (for better printing)

Add this tab to your list of favorite tabs




#----------------------------------PLEASE NOTE---------------------------------#
#This file is the author's own work and represents their interpretation of the #
#song. You may only use this file for private study, scholarship, or research. #
#------------------------------------------------------------------------------#


Song: Is This The End?
Artist: Creed  
Tabbed by: Aaron Thomas (cyberputts@hotmail.com/)  

Intro:(CLEAN) 2X  
E-------------------------------------------------------  
B--------------------------------------6-5-6------------  
G-7--9-10-9-7--7H9/10~~~-9-7-5~~~--5H7-X-X-X-7-8-7-9P7~~  
D-------------------------------------------------------  
A-------------------------------------------------------  
D-------------------------------------------------------  

E-----------------  
B-----------------  
G-10-9-7-5~~~-5H7-  
D-----------------  
A-----------------  
D-----------------  

Pre-chorus 1:(clean)  
E-------------------------------------------------------  
B--------------------------------------6-5-6------------  
G-7--9-10-9-7--7H9/10~~~-9-7-5~~~--5H7-X-X-X-7-8-8-8-8-8  
D----------------------------------------------8-8-8-8-8  
A----------------------------------------------6-6-6-6-6  
D-------------------------------------------------------  

E--------------  
B--------------  
G-8-8/7-7-7-7-7  
D-8-8/7-7-7-7-7  
A-6-6/5-5-5-5-5  
D--------------  

Chorus 1:(clean)  
E-0------0-0-7------7--7--5------5-5  
B-3------3-3-10-----10-10-8------8-8  
G-2---2----2-9---9--9--9--7---7--7-7  
D-0---0------7---7--------5---5-----  
A-0----------7------------5---------  
D-0----------7------------5---------  

Riff 1:(clean)  
E--------------------------  
B--------------------------  
G-7-7h9-9-11-11/12-12/14~~~  
D-0-0-0-0-0--0--0--0--0----  
A-0-0-0-0-0--0--0--0--0----  
D-0-0-0-0-0--0--0--0--0----  

Verse riff  

Prechorus 2:(clean)  
E-------------------------------------------------------  
B--------------------------------------6-5-6------------  
G-7--9-10-9-7--7H9/10~~~-9-7-5~~~--5H7-X-X-X-7-8-8-8-8-8  
D----------------------------------------------8-8-8-8-8  
A----------------------------------------------6-6-6-6-6  
D-------------------------------------------------------  
Add this (play quickly)  
E---------------0-0-0--0--0--0--0--0--0----------  
B---------------8-8/10-10/12-12/13-13/15-15-15-15  
G-8-8/7-7-7-7-7-7-7/9--9-/11-11/12-12/14-14-14-14  
D-8-8/7-7-7-7-7-0-0-0--0--0--0--0--0--0----------  
A-6-6/5-5-5-5-5----------------------------------  
D------------------------------------------------  

Chorus 2:(distortion)  
E-0------0-0-7------7--7--5------5-5  
B-3------3-3-10-----10-10-8------8-8  
G-2---2--2-2-9---9--9--9--7---7--7-7  
D-0---0--0-0-7---7--7--7--5---5--5-5  
A-0---0----0-7---7-----7--5---5----5  
D-0---0------7---7--------5--------5  

Riff 2:(distortion)  
E--------------------------------  
B--------------------------------  
G-7-7/9-9/11-11/12-12/14-14-14-14  
D-X-X-X-X-X--X--X--X--X--X--X--X-  
A-5-5/7-7/9--9//10-10/12-12-12-12  
D--------------------------------  

Bridge(Distortion)  
E-0------0-0-7------7--7--5--9-----9-----------5-5--------  
B-3------3-3-10-----10-10-8--12----12----------8-8--------  
G-2---2--2-2-9---9--9--9--7--11-11-11-11-7-----7-7--------  
D-0---0--0-0-7---7--7--7--5--9--9--9--9--5-----5-5h0-0h3p0  
A-0---0----0-7---7-----7--5--9--9-----9--5-------5h0-0h3p0  
D-0---0------7---7--------5--9--9-----9--5-------5h0-0h3p0  

Little background riff behind bridge?  

After Bridge:(clean) 1X  
E-0--0-0-0--0--0--0--0-0-0-  
B-3--3-3/10-10/12-12/8-8-8-  
G-2--2-2/9--9//11-11/7-7-7-  
D-0--0-0-0--0--0--0--0-0-0-  
A-0------------------------  
D-0------------------------  

Then Play:(clean)  
E--------------------------  
B--------------------------  
G-7-7h9-9-11-11/12-12/14~~~  
D-0-0-0-0-0--0--0--0--0----  
A-0-0-0-0-0--0--0--0--0----  
D-0-0-0-0-0--0--0--0--0----  

End On:(clean)  
E-5  
B-8  
G-7  
D-5  
A-5  
D-5  

The rage in my eyes  
Could have compared to the eye of a sun  
Then rain  
Took it's course through the hands of the Son  
Repent for all time  
The world is at war leaving all fault behind  

So Is this the end for us my friend?  
So Is this the end for us my friend?  

The stains in the sky  
Are there to remind us of man and his fight  
When two worlds collide  
One steals the life like a theif in the night  
So look to the sky  
He hold the keys for your life and mine  

So Is this the end for us my friend?  
So Is this the end for us my friend?  
So Is this the end for us my friend?  

Well as though we rise  
As the day breaks the dawn  
And as the moon hides the sun  
Oh, the sun  

No more sorrow  
All those crying days are gone  
No more sorrow, now it's gone  
Now it's gone  
Now it's gone  

So Is this the end for us my friend?  
So Is this the end for us my friend?  
So Is this the end for us my friend?  
So Is this the end for us my friend?



Comments about this tab

No comments/corrections found. Add your own



2005 ZMG, Inc.- All Right Reserved - Privacy Statement