Rockin Tabs Home

 :: Home > Tabs > C > Creed > In America

Creed - In America


This tab has not yet been rated for accuracy.Sorry, but you must be logged in to rate this tab so we can tell which songs you've already voted on, which will help prevent cheating.
Click here to log-in, or you can click here to register.
(Registration is free)


Click here for a plain text version of this song (for better printing)

Add this tab to your list of favorite tabs




#----------------------------------PLEASE NOTE---------------------------------#
#This file is the author's own work and represents their interpretation of the #
#song. You may only use this file for private study, scholarship, or research. #
#------------------------------------------------------------------------------#


*In America* Transcribed by Billycorgan@sprynet.com
             http://home.sprynet.com/sprynet/billycorgan/creed.htm


Tuning: D A D G B E


INTRO/VERSE
|------------------------------------|
|------------------------------------|
|-7-7-7-7/10-10-10-10\9-9-9-10\9-9-9-|
|------------------------------------|
|-5-5-5-5/8--8--8--8-\7-7-7-8-\7-7-7-|
|-0-0-0-0----0--0--0----0-0-0----0-0-|

|------------------------------------|
|------------------------------------|
|-7-7-7-7/10-10-10-10-9--------------|
|-----------------------7------------|
|-5-5-5-5/8--8--8--8------7----------|
|-0-0-0-0----0--0--0-----------------|


CHORUS
|-------------------------------------|
|-3-3-3-3-8-8-8-8-12-12-12-12-5-5-5-5-|
|-2-2-2-2-7-7-7-7-11-11-11-11-4-4-4-4-|
|-0-0-0-0-5-5-5-5-9--9--9--9--2-2-2-2-|
|-0-0-0-0-5-5-5-5-9--9--9--9--2-2-2-2-|
|-0-0-0-0-5-5-5-5-9--9--9--9--2-2-2-2-|


VERSE 2 - Same


CHORUS 2 - Same but with distortion


BRIDGE
|----------------|
|----------------|
|---------10\9\8-|
|-0-0-7-0-10\9\8-|
|-0-0-5-0-8-\7\6-|
|-0-0-0-0--------|


INTERLUDE
|------------------------------------------|
|------------------------------------------|
|------------------------------------------|
|------------------------------------------|
|-0-15-14-0-13-14-0-13-12-0-10-12-0-0-0-15-|
|-0-15-14-0-13-14-0-13-12-0-10-12-0-0-0-15-|

Then play it twice as fast after that


CHORUS 3 - Same


End with intro



Comments about this tab

No comments/corrections found. Add your own



2005 ZMG, Inc.- All Right Reserved - Privacy Statement