Rockin Tabs Home

 :: Home > Tabs > C > Creed > Illusion

Creed - Illusion


This tab has not yet been rated for accuracy.Sorry, but you must be logged in to rate this tab so we can tell which songs you've already voted on, which will help prevent cheating.
Click here to log-in, or you can click here to register.
(Registration is free)


Click here for a plain text version of this song (for better printing)

Add this tab to your list of favorite tabs




#----------------------------------PLEASE NOTE---------------------------------#
#This file is the author's own work and represents their interpretation of the #
#song. You may only use this file for private study, scholarship, or research. #
#------------------------------------------------------------------------------#


*Illusion* Transcribed by Billycorgan@sprynet.com
           http://home.sprynet.com/sprynet/billycorgan/creed.htm


Tuning: D A D G B E


BASS INTRO
|-----------------------|
|--------------4--------|
|-2--------------5------|
|----3--3b--0---------4-|


LEAD INTRO
|-----------------------------------------------|
|-12b-------------------------------------------|
|-12b--10-10-12--10-10-12p10----10-12b-12p10----|
|----------------------------12--------------12-|
|-----------------------------------------------|
|-----------------------------------------------|


|--------------------|
|--------------------|
|-4------------------|
|-4--3---0---4-------|
|-2--3---0-----5-----|
|----3---0---------4-|


VERSE
|---------------------------------------------|
|---------------------------------------------|
|---------------------------------------------|
|---------------------------------------------|
|-2-2-2-2-2-2---------------------------------|
|-------------3-3-3-3-3-3-3-3-0-0---0-0---0-0-|
pm...............................   ...   ...

after playing that twice then play this 
|---------------------------------------------|
|---------------------------------------------|
|---------------------------------------------|
|---------------------------------------------|
|-2-------------------------------------------|
|-------------3---------------0-0---0-0---0-0-|
                              ...   ...   ...

|---------------------------------------------|
|---------------------------------------------|
|---------------------------------------------|
|-----------------------------0---------------|
|-2---------------------------0---------------|
|-------------3---------------0---------------|


CHORUS
|--------------------|
|--------------------|
|-4------------------|
|-4--3---0---4-------|
|-2--3---0-----5-----|
|----3---0---------4-|


VERSE 2 - Same


CHORUS 2 - Same


SOLO
|-----------------------------------------------------------------
|-----------------------------------------------------------------
|-----------------------------------------------------------------
|-----------------------------------------------------------------
|-----------------------------------------------------------------
|-12----10-10-10h12-10-10-10h12----12-14-15--14-15-17--12-14-15---
        .....................      

 -----------------------------------------------------------------
 -----------------------------------------------------------------
 -----------------------------------------------------------------
 ----------------------------------------11-12-14-11-12--11-------
 -------------------------------10-12-13---------------13---12-13-
 -12-12-12h14\10/12----12-14-15-----------------------------------

 -----------------------------------------------------------------
 -----------------------------------------------------------------
 -----------------------------------------------------------------
 -----------------------------------------------------------------
 -10-12-8-10-7-8-5-7-8-5-7-8-5-7-5-\\\\\whammy bar dive-----------
 -----------------------------------------------------------------

then play this part 4 times
|---------------------------------------------|
|---------------------------------------------|
|---------------------------------------------|
|-------11-12-----12-11--11-12-14-12-11-------|
|-12-13--------12-----------------------13-12-|
|---------------------------------------------|

and end the solo by tremolo picking on this
|----|
|----|
|-19-|
|----|
|-17-|
|----|


BRIDGE
|---------------------|
|---------------------|
|------3----5----2----|
|-0----3----5----2----|
|-0----1----3----0----|
|-0-------------------|


CHORUS 3 - Same


OUTRO
|-----------------------------|
|-----------------------------|
|-----------------------------|
|---------0--0----------------|
|---------0--0----------------|
|-4-5-4-5-0--0--0-4-5-7-5-4-5-|
  .......       .............

|-----------------------------|
|-----------------------------|
|-----------------------------|
|-4h5-4h5-0--0--0-4h5-7p5-4h5-|
|---------0--0----------------|
|---------0--0----------------|


|-----------------------------|
|-----------------------------|
|-----------------------------|
|-4-5-4-5-0--0--0-4-5-7-5-4-5-|
|-4-5-4-5-0--0--0-4-5-7-5-4-5-|
|-4-5-4-5-0--0--0-4-5-7-5-4-5-|


End with chorus riff



Comments about this tab

No comments/corrections found. Add your own



2005 ZMG, Inc.- All Right Reserved - Privacy Statement