Rockin Tabs Home

 :: Home > Tabs > C > Collective Soul > World I Know, The

Collective Soul - World I Know, The


This tab has not yet been rated for accuracy.Sorry, but you must be logged in to rate this tab so we can tell which songs you've already voted on, which will help prevent cheating.
Click here to log-in, or you can click here to register.
(Registration is free)


Click here for a plain text version of this song (for better printing)

Add this tab to your list of favorite tabs




#----------------------------------PLEASE NOTE---------------------------------#
#This file is the author's own work and represents their interpretation of the #
#song. You may only use this file for private study, scholarship, or research. #
#------------------------------------------------------------------------------#


"The World I Know"
 Collective Soul
 CD: Collective Soul
 Atlantic Records
 Transcribed by Connor Roberts
 countingcrows1@yahoo.com

Chords:
Bmin7  Dmaj6  Gmaj(add9) Amaj(add9)   A      C      D      G
--x--  --x--  --x--      --x--      --0--  --0--  --2--  --3--
--0--  --0--  --0--      --0--      --2--  --1--  --3--  --3--
--7--  --2--  --4--      --6--      --2--  --0--  --2--  --0--
--0--  --0--  --0--      --0--      --2--  --2--  --0--  --0--
--0--  --0--  --0--      --0--      --0--  --3--  --x--  --2--
--7--  --2--  --3--      --5--      --0--  --x--  --x--  --3--
C9     Dsus4  Dsus2
--0--  --3--  --0--
--3--  --3--  --3--
--x--  --2--  --2--
--2--  --0--  --0--
--3--  --x--  --0--
--0--  --x--  --0--

Abbreviations:
Bmin7      = Bm7
Dmaj6      = D6
Gmaj(add9) = G9
Amaj(add9) = A9
Dsus4      = D4 
Dsus2      = D2
=================================================================
Intro:
Bm7     D6    G9               A9 (4x)

Verse 1:
Bm7     D6         G9                   A9 
        Has our conscience shown?
Bm7     D6         G9                   A9
        Has the sweet breeze blown?
Bm7     D6         G9                   A9
        Has all the kindness gone?
Bm7     D6         G9                      
        Hope still lingers on.
Pre-Chorus:
A
        I drink myself of newfound pity
A
        Sitting alone in New York City.
              G
        And I don't know why.

Bridge:
Bm7     D6     G9               A9 (2x)

Verse 2: 
Bm7     D6     G9               A9
        Are we listening?
Bm7     D6     G9               A9
        Hymns of offering
Bm7     D6     G9               A9
        Have we eyes to see?
Bm7     D6     G9                
        That love is gathering? 
        A
        All the words that I've been reading
        A
        Have now started the act of bleeding
        G
        Into one....Into one.
Chorus:
D                      A        
        So I walk upon high
                          G
        And I step to the edge
                          D     D4, D, D2, D  
        To see my world below.
D                        A
        And I laugh at myself
                             G
        While the tears roll down.
                                C9
        'Cause it's the world I know. 
                            D                   
        Oh It's the world I know.
Solo:
                                1st Ending   2nd Ending  
e---0-h2-0---2---2---5-5-h7-5---|--7---5-----|-7---7-5-3-2-||
B-3--------3---3---3----------3-|----3-------|---3---------||
G-------------------------------|------------|-------------||
D-------------------------------|------------|-------------||
A-------------------------------|------------|-------------||
E-------------------------------|------------|-------------||

Outro:
Bm7     D6     G9               A9 (3x)
Bm7     D6     G (let G ring)

ORDER:
intro,verse1,bridge,verse2,pre-chorus,
chorus,solo,pre-chorus,chorus(2x),outro



Comments about this tab

No comments/corrections found. Add your own



2005 ZMG, Inc.- All Right Reserved - Privacy Statement