Rockin Tabs Home

 :: Home > Tabs > C > Collective Soul > Where the River Flows

Collective Soul - Where the River Flows


This tab has not yet been rated for accuracy.Sorry, but you must be logged in to rate this tab so we can tell which songs you've already voted on, which will help prevent cheating.
Click here to log-in, or you can click here to register.
(Registration is free)


Click here for a plain text version of this song (for better printing)

Add this tab to your list of favorite tabs




#----------------------------------PLEASE NOTE---------------------------------#
#This file is the author's own work and represents their interpretation of the #
#song. You may only use this file for private study, scholarship, or research. #
#------------------------------------------------------------------------------#


Where The River Flows - Collective Soul

Tabbed by Adam Bishop

Low to high: CGCFAD (drop D tuned down 1 step)

Intro
D|------------------------------------------------------------------------------
A|------------------------------------------------------------------------------
F|------------------------------------------------------------------------------
C|------------------------------------------------------------------------------
G|-0-x-0-2-0-3--x-0-2-0-3-3-0--x-0-2-0-3--x-0-2-0-3-3-0--x-0-2-0-3--x-0-2-0-3-3-
C|-0-x-0-2-0-3--x-0-2-0-3-3-0--x-0-2-0-3--x-0-2-0-3-3-0--x-0-2-0-3--x-0-2-0-3-3-

D|-----------------------------
A|-----------------------------
F|-----------------------------
C|-----------------------------
G|-0-x-0-2-0-3--x-0-2-0-3-3-3/-
C|-0-x-0-2-0-3--x-0-2-0-3-3-3/-

Verse 1 (x2)
D|--------------------------------------------------------------------
A|--------------------------------------------------------------------
F|--------------------------------------------------------------------
C|--------------------------------------------------------------------
G|-/5-5-5-5-5-5-5-5-5-5-5-5-5-5-5-5-5-5-5-5-5-5-5-5-5-5-5-5-5-5-7-3-0-
C|-/5-5-5-5-5-5-5-5-5-5-5-5-5-5-5-5-5-5-5-5-5-5-5-5-5-5-5-5-5-5-7-3-0-

D|-----------------------------------------------------
A|-----------------------------------------------------
F|-----------------------------------------------------
C|-----------------------------------------------------
G|-x-0-2-0-3--x-0-2-0-3-3-0--x-0-2-0-3--x-0-2-0-3-3-3/-
C|-x-0-2-0-3--x-0-2-0-3-3-0--x-0-2-0-3--x-0-2-0-3-3-3/-

Chorus
D|-------------------------------------------------------------------
A|-------------------------------------------------------------------
F|-------------------------------------------------------------------
C|-------------------------------------------------------------------
G|-/7-7-7-7-7-7-7-7-7-7-7-7-7-7-7-7/5-5-5-5-5-5-5-5-5-5-5-5-5-5-5-5/-
C|-/7-7-7-7-7-7-7-7-7-7-7-7-7-7-7-7/5-5-5-5-5-5-5-5-5-5-5-5-5-5-5-5/-

D|--------------------------------------------------------------------
A|--------------------------------------------------------------------
F|--------------------------------------------------------------------
C|--------------------------------------------------------------------
G|-/7-7-7-7-7-7-7-7-7-7-7-7-7-7-7-7/5-5-5-5-5-5-5-5-5-5-5-5-5-5-7-3-0-
C|-/7-7-7-7-7-7-7-7-7-7-7-7-7-7-7-7/5-5-5-5-5-5-5-5-5-5-5-5-5-5-7-3-0-

D|-----------------------------------------------------
A|-----------------------------------------------------
F|-----------------------------------------------------
C|-----------------------------------------------------
G|-x-0-2-0-3--x-0-2-0-3-3-0--x-0-2-0-3--x-0-2-0-3-3-3/-
C|-x-0-2-0-3--x-0-2-0-3-3-0--x-0-2-0-3--x-0-2-0-3-3-3/-

Verse 2 - repeat Verse 1
Repeat Chorus

Solo
D|------------------------------------------------------------------
A|------------------------------------------------------------------
F|------------------------------------------------------------------
C|-----------------------------7--------------------------------7---
G|-5-5-5-5-5-5-5-5-7-5-5-5-8-5---5--5-5-5-5-5-5-5-5-7-5-5-5-8-5---5-
C|------------------------------------------------------------------

D|------------------------------------------------------------------
A|------------------------------------------------------------------
F|------------------------------------------------------------------
C|-----------------------------7--------------------------------7---
G|-5-5-5-5-5-5-5-5-7-5-5-5-8-5---5--5-5-5-5-5-5-5-5-7-5-5-5-8-5---5-
C|------------------------------------------------------------------

D|------------------------------------------------------------------
A|------------------------------------------------------------------
F|-----------------------------7--------------------------------7---
C|-5-5-5-5-5-5-5-5-7-5-5-5-8-5---5--5-5-5-5-5-5-5-5-7-5-5-5-8-5---5-
G|------------------------------------------------------------------
C|------------------------------------------------------------------

D|------------------------------------------------------------------
A|------------------------------------------------------------------
F|------------------------------------------------------------------
C|-----------------------------7--------------------------------7---
G|-5-5-5-5-5-5-5-5-7-5-5-5-8-5---5--5-5-5-5-5-5-5-5-7-5-5-5-8-5---5-
C|------------------------------------------------------------------

D|-----------------------------------------------------
A|-----------------------------------------------------
F|-----------------------------------------------------
C|-----------------------------------------------------
G|-x-0-2-0-3--x-0-2-0-3-3-0--x-0-2-0-3--x-0-2-0-3-3-3/-
C|-x-0-2-0-3--x-0-2-0-3-3-0--x-0-2-0-3--x-0-2-0-3-3-3/-

Verse 3 - repeat Verse 1

Last Chorus
D|-------------------------------------------------------------------
A|-------------------------------------------------------------------
F|-------------------------------------------------------------------
C|-------------------------------------------------------------------
G|-/7-7-7-7-7-7-7-7-7-7-7-7-7-7-7-7/5-5-5-5-5-5-5-5-5-5-5-5-5-5-5-5/-
C|-/7-7-7-7-7-7-7-7-7-7-7-7-7-7-7-7/5-5-5-5-5-5-5-5-5-5-5-5-5-5-5-5/-

D|---------------------------------------------------------------------
A|---------------------------------------------------------------------
F|---------------------------------------------------------------------
C|---------------------------------------------------------------------
G|-/7-7-7-7-7-7-7-7-7-7-7-7-7-7-7-7/5-5-5-5-5-5-5-5-5-5-5-5-5-5-7-3-0/-
C|-/7-7-7-7-7-7-7-7-7-7-7-7-7-7-7-7/5-5-5-5-5-5-5-5-5-5-5-5-5-5-7-3-0/-

D|-------------------------------------------------------------------
A|-------------------------------------------------------------------
F|-------------------------------------------------------------------
C|-------------------------------------------------------------------
G|-/7-7-7-7-7-7-7-7-7-7-7-7-7-7-7-7/5-5-5-5-5-5-5-5-5-5-5-5-5-5-5-5/-
C|-/7-7-7-7-7-7-7-7-7-7-7-7-7-7-7-7/5-5-5-5-5-5-5-5-5-5-5-5-5-5-5-5/-

D|--------------------------------------------------------------------
A|--------------------------------------------------------------------
F|--------------------------------------------------------------------
C|--------------------------------------------------------------------
G|-/7-7-7-7-7-7-7-7-7-7-7-7-7-7-7-7/5-5-5-5-5-5-5-5-5-5-5-5-5-5-7-3-0-
C|-/7-7-7-7-7-7-7-7-7-7-7-7-7-7-7-7/5-5-5-5-5-5-5-5-5-5-5-5-5-5-7-3-0-

D|---------------------------------------------------------------
A|---------------------------------------------------------------
F|---------------------------------------------------------------
C|---------------------------------------------------------------
G|-x-0-2-0-3--x-0-2-0-3-3-0--x-0-2-0-3--x-0-2-0-3-3-0--x-0-2-0-3-
C|-x-0-2-0-3--x-0-2-0-3-3-0--x-0-2-0-3--x-0-2-0-3-3-0--x-0-2-0-3-

Lyrics:

Give me a moment
Got to get this weight up off my chest
Don't feed me sorrow
Pain is a poison I digest

Find yourself a love that's so true, whoa
You think you thought I know
Walk the path, my journey, I must go
To where the river flows
To where the river flows

Won't give you answers
To the questions you will get to ask
Silence is beauty
Words can only complicate the past

Find yourself a love that's so true, whoa
You think you thought I know
Walk the path, my journey, I must go
To where the river flows
To where the river flows

Solo

Make no more wishes
My love, my patience has been spilt
Guns of the season
Leave me to my next answer then

Find yourself a love that's so true, whoa
You think you thought I know
Walk the path, my journey, I must go
To where the river flows
To where the river flows

Find yourself a love that's so true, whoa
You think you thought I know
Walk the path, my journey, I must go
To where the river flows
To where the river flows
To where the river flows

http://www.angelfire.com/mi/Grenfell/index.html



Comments about this tab

No comments/corrections found. Add your own



2005 ZMG, Inc.- All Right Reserved - Privacy Statement