Rockin Tabs Home

 :: Home > Tabs > C > Collective Soul > Untitled

Collective Soul - Untitled


This tab has not yet been rated for accuracy.Sorry, but you must be logged in to rate this tab so we can tell which songs you've already voted on, which will help prevent cheating.
Click here to log-in, or you can click here to register.
(Registration is free)


Click here for a plain text version of this song (for better printing)

Add this tab to your list of favorite tabs




#----------------------------------PLEASE NOTE---------------------------------#
#This file is the author's own work and represents their interpretation of the #
#song. You may only use this file for private study, scholarship, or research. #
#------------------------------------------------------------------------------#


                                Untitled
                            Collective Soul


Acoustic
Riff A
e--------------------------------------------------------
B--------15-----------12-----------13----------12--------
G----14-----12-----12----12-----12----12----12----12-----
D-12-----------14------------14----------12--------------
A--------------------------------------------------------
E--------------------------------------------------------

e----------------------------------------------------
B--------15-----------12----------13---------12------
G----14-----12-----12----12----12----12----12---13---
D-12-----------14-----------14----------14-----------
A----------------------------------------------------
E----------------------------------------------------

Riff B
e-----------------------------
B-----------------------------
G-----------------------------
D--------------------5--------
A----------------5h7---5-6-7--
E-0--0-0-3-0-0-3--------------

Riff B1
e----------------3--2--3p2p0-
B----------------3--2--3p2p0-
G----------------------------
D------5---------------------
A--5h7----5-6-7--------------
E----------------------------

Repeat Riff B and Riff B1 
two time 
then repeat riff B three times

Asus        A           Asus            A
un veil to me           all that you want

play riff b and riff b1 again
then play

Asus            A       Asus      A
Why should i stop       Bearing alle giance to you              

Play Riff B and Riff b1 again

Then play the chorus

D       em             c             G
I dont believe in the sorcers or the preachers
d       Em        C
i just believe in you
D       Em              C             G
I dont believe in the scholars or the wise men
D       Em        C
i just believe in you

Repeat the whole thing over again

Then at the end of the second time play this
e-------------------------------------------
B-------------------------------------------
G-------------------------------------------
D-------------------------------------------
A-------------------------------------------
E0-0-0-0-3p0-0-3p0-3p2-00-00-03p0-03p2-03p2-

then this
e---------------------
B---------------------
G---------------------
D----------------4-4-4 <--repeat 3 more times
A2-2-2-2-2-2-2-2-5-5-5
E0-0-0-0-0-0-0--------

Solo
e--------------------------------14b-14b-14br-12-----
B-15b-15-15b-15-15-15-15-15br-12----------------15b--
G----------------------------------------------------
D----------------------------------------------------
A----------------------------------------------------
E----------------------------------------------------

e-------------------------------------------------------------------------
B-------------------------------------------------------------------------
G-18-17-16-17-16-15-15-14-13-14-13-12-------------------------------------
D-------------------------------------17-16-15-16-15-14-14-13-12-13-12-11-
A-------------------------------------------------------------------------
E-------------------------------------------------------------------------

e--------------------------------------------------------------------
B-------------------------14b14--14-------12------14b12b-----12-14/16
G-------------14--12------14b14--14-12----12------14b12b-14----------
D--------12----------14-x--------------14----14-12-------------------
A-12h14x-------------------------------------------------------------
E--------------------------------------------------------------------

e-------15-------17b17b17b17b17b17b17b17b17b-15--------17b-15------17b15----
B-15h17----17-15--------------------------------17b-15--------17b15-----17b-
G---------------------------------------------------------------------------
D---------------------------------------------------------------------------
A---------------------------------------------------------------------------
E---------------------------------------------------------------------------

e----------------------------------------
B-17-15-17b17b17b17b17b17b17b17b17b17b17b
G----------------------------------------
D----------------------------------------
A----------------------------------------
E----------------------------------------

Then play the chorus 4X

then the last part that you can hear in chorus is
e----------------------------------------
B--------13-------------13----12-----12--
G-----15----15-------15----15-12-----12--
D--14-------------------------12-----12--
A----------------------------------------
E----------------------------------------

That's it
Comments Or corrections greyice@hotmail.com
nick



Comments about this tab

No comments/corrections found. Add your own



2005 ZMG, Inc.- All Right Reserved - Privacy Statement