Rockin Tabs Home

 :: Home > Tabs > C > Collective Soul > Simple

Collective Soul - Simple


This tab has not yet been rated for accuracy.Sorry, but you must be logged in to rate this tab so we can tell which songs you've already voted on, which will help prevent cheating.
Click here to log-in, or you can click here to register.
(Registration is free)


Click here for a plain text version of this song (for better printing)

Add this tab to your list of favorite tabs




#----------------------------------PLEASE NOTE---------------------------------#
#This file is the author's own work and represents their interpretation of the #
#song. You may only use this file for private study, scholarship, or research. #
#------------------------------------------------------------------------------#


                                Simple  
                           Collective Soul

Intro
e-12-12-x-x---x-x-6s7-x--9-x-7-x-x-12-12-x-x----x-x-6s7-x-9-x-10-x-0-
B-12-12-x-x-8-x-x-6s7-x--7-x-7-x-x-12-12-x-x--8-x-x-6s7-x-7-x--9-x---
G-----------7-----6s7-x--7-x-7-x-x------------7-----6s7-x------------
D--------------------------------------------------------------------
A--------------------------------------------------------------------
E--------------------------------------------------------------------
Play The above riff 7x

Riff A
e--------------------------------------------
B--------------------------------------------
G--------------------------------------------
D--------------------------------------------
A--------7--------5p0-7p0--------5b1/2-------
E-0--0------5--7----------0-5h7--------------
cont
e--------------------------------------------
B--------------------------------------------
G--------------------------------------------
D----------------------------5b1/2-----------
A-----7-------5p0-7p0------------------------
E-0-0----5--7---------0-5h7------------------

play riff a 4x then play this
Ease you troubled mind ....    it's
Riff B
e--------------------------------------------
B--------------------------------------------
G--------------------------------------------
D-5-5-5-5-5-5-5-5s7-7-7-7-7-7-7-7-7----------
A-5-5-5-5-5-5-5-5s7-7-7-7-7-7-7-7-7----------
E-3-3-3-3-3-3-3-3s5-5-5-5-5-5-5-5-5----------

Riff C
e--------------------------------------------------------
B--------------------------------------------------------
G-1--1--------------2--1-x-x--1--1--------------2-1-x-x--
D-2--2--2p0---------2--2-x-x--2--2--2p0---------2-2-x-x--
A-2--2--------------0--2-x-x--2--2--------------0-2-x-x--
E-0--0------0-3p0-0----0-x-x--0--0------0-3p0-0---0-x-x--

Play Riff B
Then Play Riff C again

Play riff A about 7x
then play Riff B
The play Riff C 
Then play Riff B

The Play the first part of riff C
the play
Ah simple words, a simple rhyme...
e----------------------------------------
B-3----3--3--3---------------------------
G-2----2--2--2--2----2---2-----1--1-xxxx-  <--play again
D-0----0--0--0--2----2---2-----2--2-xxxx-
A-0----0--0--0--0----0---0-----2--2-xxxx-
E---------------------------3--0--0-xxxx-

Now play
e--------------------------------------------
B--------------------------------------------
G--------------------------------------------
D-------------------------------------------- <--Play about 10x
A--------7---------5-------------------------    
E-0---0-----5--7-----------------------------

The play Riff A 4x
Then play Riff B

Then the end is
e----------------------------------------
B----------------------------------------
G-1-1------------------------------------
D-2-2-2p0-----------2p0------------------ <--repeat the end on The E Chord
A-2-2-----x-x-----------2p0--------------
E-0-0-----x-x-3p0-0---------3p0----------

Comments or Corrections greyice@hotmail.com
Nick



Comments about this tab

No comments/corrections found. Add your own



2005 ZMG, Inc.- All Right Reserved - Privacy Statement