Rockin Tabs Home

 :: Home > Tabs > C > Collective Soul > Disciplined Breakdown

Collective Soul - Disciplined Breakdown


This tab has not yet been rated for accuracy.Sorry, but you must be logged in to rate this tab so we can tell which songs you've already voted on, which will help prevent cheating.
Click here to log-in, or you can click here to register.
(Registration is free)


Click here for a plain text version of this song (for better printing)

Add this tab to your list of favorite tabs




#----------------------------------PLEASE NOTE---------------------------------#
#This file is the author's own work and represents their interpretation of the #
#song. You may only use this file for private study, scholarship, or research. #
#------------------------------------------------------------------------------#


Song: "Disciplined Breakdown" by "Collective Soul"
Album: "Disciplined Breakdown"(1997)

This is a cool song off of collective soul's new album. It's
pretty easy to play so you probably won't have any trouble 
with it but if you do feel free to e-mail me with any comments,
Questions, additions, or corrections you have.

*******************************
* Tune your guitar 1/2 a step *
*******************************

INTRO: 
Guitar 1-(00:00)4x
E|-------------------------------|
B|-------------------------------|
G|-------------------------------|
D|-------------------------------|
A|--------------0-7---0--6---0-5-|
E|-0---7p0-10p0------------------|


VERSE: No guitar.


CHORUS 1:
Guitar 1-(00:26)1x
E|--2--|--0--|--0--|--0--|--2--|--0--|
B|--3--|--2--|--0--|--0--|--3--|--2--|
G|--2--|--2--|--1--|--1--|--2--|--2--|
D|--0--|--2--|--2--|--2--|--0--|--2--|
A|-----|--0--|--2--|--2--|-----|--0--|
E|-----|-----|--0--|--0--|-----|-----|

Guitar 3-(00:26)1x
E|-----------------------------------------------------------|
B|-----------------------------------------------------------|
G|-10~~~~~~~~/13~/15~~\13~~~~~~~~\5~~~\3~~/12~~~~~/13~~~~\12-|
D|-----------------------------------------------------------|
A|-----------------------------------------------------------|
E|-----------------------------------------------------------|

E|-------------------------------------------|
B|-------------------------------------------|
G|~~~~\8~~~~/10~~~~~~~~/13~/15~~\13~~~~~~~~\-|
D|-------------------------------------------|
A|-------------------------------------------|
E|-------------------------------------------|


INTRO: 
Guitar 1-(00:41)4x


VERSE: No guitar.




CHORUS 1:
Guitar 1-(01:07)1x
Guitar 3-(01:07)1x


INTERLUDE:
Guitar 1-(01:22)1x
E|============Play 2x===========|---0---|---0---|
B|-x-x-2--2--2-2-2-2-2-2---2--2-|---0---|---0---|
G|-x-x-2--2--2-2-2-2-2-2---2--2-|---1---|---1---|
D|-x-x-2--2--2-2-2-2-2-2---2--2-|---2---|---2---|
A|-x-x-0--0--0-0-0-0-0-0---0--0-|---2---|---2---|
E|------------------------------|---0---|---0---|

E|============Play 2x===========|------------------------|
B|-x-x-2--2--2-2-2-2-2-2---2--2-|------------------------|
G|-x-x-2--2--2-2-2-2-2-2---2--2-|------------------------|
D|-x-x-2--2--2-2-2-2-2-2---2--2-|==========P.M.==========|
A|-x-x-0--0--0-0-0-0-0-0---0--0-|-5--5--5--5--5--5--5--5-|
E|------------------------------|-3--3--3--3--3--3--3--3-|

E|---------------------------|
B|---------------------------|
G|======P.M.=======|-4-4-4-4-|
D|-4--4--4--4--4--4--4-4-4-4-|
A|-2--2--2--2--2--2--2-2-2-2-|
E|---------------------------|


FILL 1:
Guitar 2-(01:24)1x
E|--------|
B|--------|
G|--2b~r--|
D|--------|
A|--------|
E|--------|


FILL 2:
Guitar 2-(01:27)1x
E|-------0--------------0--------------0--------------0----4br-|
B|-3p0-0----0-0h3-3p0-0----0-0h3-3p0-0----0-0h3-3p0-0----0-----|
G|-------------------------------------------------------------|
D|-------------------------------------------------------------|
A|-------------------------------------------------------------|
E|-------------------------------------------------------------|



FILL 1:
Guitar 2-(01:34)1x


INTRO: 
Guitar 1-(01:42)-3x



FILL 3: 
Guitar 1-(01:50)-1x
E|------------------|
B|------------------|
G|------------------|
D|------------------|
A|--------------0-7-|
E|-0---7p0-10p0-----|


PRE-CHORUS:
Guitar 1-(02:04)1x
E|-3-3-3-3-3-3-3-3-3-3-3-3-3-3-3-3-4-4-4-4-4-4-4-4-|
B|^^^^^^^^^^^^^^^^^^^^^^^^^^^^^^^^^^^^^^^^^^^^^^^^^|
G|=================Progressive=====================|
D|-------------------------------------------------|
A|-------------------------------------------------| 
E|-------------------------------------------------|


CHORUS 2:
Guitar 1-(02:08)3x
E|--2--|--0--|--0--|--0--|
B|--3--|--2--|--0--|--0--|
G|--2--|--2--|--1--|--1--|
D|--0--|--2--|--2--|--2--|
A|-----|--0--|--2--|--2--|
E|-----|-----|--0--|--0--|


FILL 4:
Guitar 2-(02:23)
-Same as "FILL 2" but an octive higher.


FILL 4:
Guitar 2-(02:33)


FILL 5:
Guitar 1-(02:39)1x
E|--2--|--0--|
B|--3--|--2--|
G|--2--|--2--|
D|--0--|--2--|
A|-----|--0--|
E|-----|-----|


INTRO:
Guitar 1-(02:44)3x



Comments about this tab

No comments/corrections found. Add your own



2005 ZMG, Inc.- All Right Reserved - Privacy Statement