Rockin Tabs Home

 :: Home > Tabs > C > Collective Soul > Breathe

Collective Soul - Breathe


This tab has not yet been rated for accuracy.Sorry, but you must be logged in to rate this tab so we can tell which songs you've already voted on, which will help prevent cheating.
Click here to log-in, or you can click here to register.
(Registration is free)


Click here for a plain text version of this song (for better printing)

Add this tab to your list of favorite tabs




#----------------------------------PLEASE NOTE---------------------------------#
#This file is the author's own work and represents their interpretation of the #
#song. You may only use this file for private study, scholarship, or research. #
#------------------------------------------------------------------------------#


Breathe 
Collective Soul

I don't know if it is tuned down because this is my first time to do this
so i really dont know. But i'll do my best.

Intro:
Riff A 
e-----------------------------
B-----------------------------
G-----------------------------
D---99999-999-----------------  <---play 4x
A-------------12-11-11--9--7--  <--every second time dont hit 7   
E-----------------------------          hit 9 on the D string

Riff b
e-----------
B-----------
G-----------
D-----------  <---Play 4x
A-----------
E--3-2-1-0--

Riff A play 4x
Riff B play 4x

Riff C
e----------------------------------------------------
B-10~9~8~7~5~3~2~1~---------------------------------- <---Play 2x
G-------------------12~~~~~~-------------------------
D----------------------------------------------------
A----------------------------------------------------
E----------------------------------------------------

Riff D                            Let Ring
e-3-x-3-x-3-x-3-x-5-x-5-x-5-x-5-x-7-------------------
B-3-x-3-x-3-x-3-x-5-x-5-x-5-x-5-x-9-------------------
G-3-x-3-x-3-x-3-x-5-x-5-x-5-x-5-x-9-------------------
D-5-x-5-x-5-x-5-x-7-x-7-x-7-x-7-x-9-------------------
A-5-x-5-x-5-x-5-x-7-x-7-x-7-x-7-x-7-------------------
E-3-0-3-0-3-0-3-0-5-0-5-0-5-0-5-0-7-------------------

Solo I dont know how to play this but if anyone know's how please send
it to me. thanks

play riff b 4x
play riff a 8x

riff e
e----------------------------------------------------
B----------------------------------------------------
G----------------------------------------------------
D-x-x9h12p9------------------------------------------ <---4x
A----------12p9h11p7---------------------------------
E----------------------------------------------------

Riff F
e----------------
B---12b-9-12-9---
G--------------9-
D----------------
A----------------
E----------------

Riff G
e----------------------------------------------------
B----------------------------------------------------
G----------------------------------------------------
D----------------------------------------------------  <--Play till song ends
A----------------------------------------------------
E-000000000000000000000032000000000000000000000032000

Structure
Riff A 4x
Riff B 4x
Riff A 4x
Riff B 4x
Riff C 2x
Riff D 1X
Solo
Riff B 4x
Riff A 8x
Riff E 4x
Riff F 1x
Riff G until end

Comments Or Corrections please send to greyice@hotmail.com



Comments about this tab

No comments/corrections found. Add your own



2005 ZMG, Inc.- All Right Reserved - Privacy Statement