Rockin Tabs Home

 :: Home > Tabs > C > Collective Soul > Bleed

Collective Soul - Bleed


This tab has not yet been rated for accuracy.Sorry, but you must be logged in to rate this tab so we can tell which songs you've already voted on, which will help prevent cheating.
Click here to log-in, or you can click here to register.
(Registration is free)


Click here for a plain text version of this song (for better printing)

Add this tab to your list of favorite tabs




#----------------------------------PLEASE NOTE---------------------------------#
#This file is the author's own work and represents their interpretation of the #
#song. You may only use this file for private study, scholarship, or research. #
#------------------------------------------------------------------------------#


BLEED- Collective Soul (self-entitled)
Transcribed by Me

Standard Tuning 

CHORDS                         NOTATION
A- 002220             h- hammer-on    //-slide up            t- tap note
G- 320033             p- pull-off         \\- slide  down 
D- x00232             ^- bend              ~~-vibrato

INTERLUDE (2X):
E --9----10----9---10----12---12---12---9----10----9--10---9--9---9
G -10----10---10---10----10---10---10---10---10---10--10--10--10--10 
B ------------------------------------------------------------------
D --------------------------(pluck these strings)-------------------      
A ------------------------------------------------------------------
E ------------------------------------------------------------------

INTRO (2X):
E -----------------------------------------
G------------------------------------------
B------------------------------------------
D-----11-12-11-12-14-11-12-11-12-11--------
A-----------------------------------12-----
E------------------------------------------

A
   I think her gun's unloaded now
   Mirrors of her memory  
G                                    D          A (palm mute/pulsate)
   I guess tomorrow will be after all
   Reflect nothing with each word she says.
A
   Who made me judge and jury here
   Her views have got me spinning 'round
G                                       D   
   It seems I'm bearing witness to her fall.
   I think she's burning altars in her head
G                         D
   I don't know why she cries to me
A 
   (she keeps her pain as company)
G                             D             A (palm mute/pulseate)
   'Cause it's only time before we all must ^Åbleed

Repeat Intro verse (4X)

SOLO INTERLUDE (Repeat 15X):

E--------------------------
B--------------------------
G------------14------------
D-----11-12-------(12)-----
A--------------------------
E--------------------------

SOLO (ie...time to get busy)

E-----------------------------------------------------------------
B-----------------------------------------------------------------
G-----------------------------------------------------------------
D-----------------11--12--11--12--11------------------------------
A------------///12--12--12--12--12---12-12------------------------
E-15~~~14~~\\------------------------------15~14---15--14\\--10-9-

E-----------------------------------------------------------------
B-------------------------------//12--14h--15h--14p--12p--14h--15h
G-----------------------------------------------------------------
D---------------11--12--11---14^----------------------------------
A-----------//12--12--12--12--------------------------------------
E-10-9-10-\\------------------------------------------------------

E------------------- --*------------------------------------------
B-14p-12p-14h-15h-14p-17t-14p-15h-14p-12p-14h-15h-14p-12p-14h-15h-
G-----------------------------------------------------------------
D-----------------------------------------------------------------
A--------------* tap 17 w/ your right index finger (like EVH)-----
E-----------------------------------------------------------------

E-----------------------------------------------------------------
B-14p-12p-14h-15h-14p-17t-14p-15h-14p-12p-14h-15h-14p-17t-14p-15h-
G-----------------------------------------------------------------
D-----------------------------------------------------------------
A-----------------------------------------------------------------
E-----------------------------------------------------------------

E-----------------------------------------*-----------------------
B14p-17t-14p-15h-14p-17t-14p-17t-14p-17h-//-19-\\-17--14p-17t--14p
G-----------------------------------------------------------------
D-----------------------------------------------------------------
A---------* slide with your index finger to reach notes-----------
E-----------------------------------------------------------------

E-----------------------------------------------------------------
B-17-//-19-17-14p-12h-14t-17h/-19~~19p-14-15^p-15^-14p-14h-15h-14p
G-----------------------------------------------------------------
D-----------------------------------------------------------------
A-----------------------------------------------------------------
E-----------------------------------------------------------------

E---------------------12--14--//--18^--17~~---GO TO MAIN VERSE----
B--12p--14^----12--14---------------------------------------------
G-----------14----------------------------------------------------
D-----------------------------------------------------------------
A-----------------------------------------------------------------
E-----------------------------------------------------------------

PLEASE EMAIL ME WITH ANY CORRECTIONS AND/OR /COMMENTS... 
scott7@uc.campus.mci.net



Comments about this tab

No comments/corrections found. Add your own



2005 ZMG, Inc.- All Right Reserved - Privacy Statement