Rockin Tabs Home

 :: Home > Tabs > D > Dinosaur Jr > On the Brink

Dinosaur Jr - On the Brink


This tab has not yet been rated for accuracy.Sorry, but you must be logged in to rate this tab so we can tell which songs you've already voted on, which will help prevent cheating.
Click here to log-in, or you can click here to register.
(Registration is free)


Click here for a plain text version of this song (for better printing)

Add this tab to your list of favorite tabs




#----------------------------------PLEASE NOTE---------------------------------#
#This file is the author's own work and represents their interpretation of the #
#song. You may only use this file for private study, scholarship, or research. #
#------------------------------------------------------------------------------#


On the Brink
Dinosaur Jr

Capo on the third fret.  All the chords and tab are relative to the capo.

G D C D x 2

This is how I play the little G D C D progression, but I really don't
think that it's the same as J plays.

  G         D               C         D
e-----3-3-0-2-3p2---------------0-0-0-2-------------------
b-----0-0-0-3----3---0h3p0------1-1-0-3----3-0h3p0--------
g-0---0-0-0-2------2------------0-0-0-2---2-2-----2-0-----
d-0-------0-0---------------2---2-2---0-------------------
a-2-------------------------3---3-3-----------------------
e-3-------------------------------------------------------

G      D                   C       D              G     D     C  D
     I know I've been left on your mind ...
G       D            C       D          G         D    C D
     If ever I could let you go is ...

C                   C             D               fill 1
     It's not often you ...
C                 C              D   fill 2
     I'm damaged, ...

G             D      C    D          G            D     C  D
     Tomorrow is the last event ...
G           D        C             D              G          D     C  D
     Forget what you thought you'd ...

fill 1
e-2-3s7-x-5-x-2-3p2---3p2----
b-------------------3-----3--
g----------------------------
d----------------------------
a----------------------------
e----------------------------

fill 2
e---0------------------------
b-----3------3---0h3p0-------
g-2-----2--2---2-------2-----
d----------------------------
a----------------------------
e----------------------------

C                 C                    D    fill 1
     I'm damaged, I'm ...
                       C             D             fill 2
     No wonder I hardly have the ...

G       D              C      D              G      D    C  D
     If ever there had been a time ...
G       D               C     D              G        D   C  D
     Is there enough of you ...

Some of these chords, I don't know the ...

Em?          C        A?    D
     All the ...
Em?       C         A?             D
     Your above all your ...
Em?          C           A?       D
     Gave it all I ...
Em?            C              A?           D
     Would you care what ....

Em?  022002
C?   x32013
A?   x02200
D    xx0232
G    320003



Comments about this tab

No comments/corrections found. Add your own



2005 ZMG, Inc.- All Right Reserved - Privacy Statement