Rockin Tabs Home

 :: Home > Tabs > D > Dinosaur Jr > In A Jar

Dinosaur Jr - In A Jar


This tab has not yet been rated for accuracy.Sorry, but you must be logged in to rate this tab so we can tell which songs you've already voted on, which will help prevent cheating.
Click here to log-in, or you can click here to register.
(Registration is free)


Click here for a plain text version of this song (for better printing)

Add this tab to your list of favorite tabs




#----------------------------------PLEASE NOTE---------------------------------#
#This file is the author's own work and represents their interpretation of the #
#song. You may only use this file for private study, scholarship, or research. #
#------------------------------------------------------------------------------#


Song : In A Jar
Artist : Dinosaur Jr. (J.Mascis - Guitar and Lyrics)
Album : You`re Living All Over Me


VERSE(I`ll be grazing by your window....)
repeat the chords 2 times:
                                          
| C | G | E | A |
 
| C | G | A | A | 
 

CHORUS(I know you don`t have the patience...)
 
| D | D | A/E | D |  X2 
...this A/E is not a slide
...listen the song for the timing
 
| D | D | G~ | A#~ | X4
... ~="let ring"
 

...then you repeate the chorus chords for two times
...when Mascis says "just a little more" you play the H chord(American B)
 
like this : | H | H | H | H |
 

INTERLUDE
repeat it 4 times
 
    F#     F#
e|------|------|------------|----------|
B|------|------|------------|----------|
G|--11--|--11--|------------|----------|
D|--11--|--11--|--11/13/11--|--9/7---|
A|--9---|--9---|------------|----------|
E|------|------|--9-/11/9---|--7/5---|
 

THE THIRD PART(I`ll watch you fall apart...)
it goes three times
...each time play these chords
 
| D | Db(C#) | D |
 
then play
 
    first       second      third  (..time)
e|-----------|-----------|---------------|
B|-----------|-----------|---------------|
G|-----------|-----------|-----9bend-----|
D|------7----|------7----|------7---|
A|--7-9---7--|--7-9------|--7-9----------|
E|-----------|--------0--|---------------|
 
after the 9bend the bass plays something
...I guess its | F | E |,the higher ones
 

THE SOLO
...play this part 4 times
 
    A
e|-----|-------------------|
B|-----|--2-------3-2-0-2--|
G|--2--|--3-2-4-2----------|
D|--2--|--0----------------|
A|--0--|-------------------|
E|-----|-------------------|
 

...the solo(no rythm indicators here,listen to the song)

e|-----------------------------------------------------------------------
B|-----------------------------------------------------------------------
G|--/14-13---------------------------------------------------------------
D|---------14-------12-11-------12-11-12-11-12-14b/r---------------------
A|------------14-12----------12------------------------------------------
E|------------------------14---------------------------------------------
 
e|--------------------14----14/12----14----17b/r-14-12-------------------
B|--14-12-14-15-14-15----15-------15----15-------------15-15b/r----------
G|-----------------------------------------------------------------------
D|--------------------------------------------------------------12~------
A|------------------------------------------------------------(whammy)---
E|-----------------------------------------------------------------------
 

..play the CHORUS without the first part of the chords
..play just a little bit of VERSE ending on H(?not too sure)



Comments about this tab

No comments/corrections found. Add your own



2005 ZMG, Inc.- All Right Reserved - Privacy Statement