Rockin Tabs Home

 :: Home > Tabs > L > Lynyrd Skynyrd > Tuesday's Gone

Lynyrd Skynyrd - Tuesday's Gone


This tab has not yet been rated for accuracy.Sorry, but you must be logged in to rate this tab so we can tell which songs you've already voted on, which will help prevent cheating.
Click here to log-in, or you can click here to register.
(Registration is free)


Click here for a plain text version of this song (for better printing)

Add this tab to your list of favorite tabs




#----------------------------------PLEASE NOTE---------------------------------#
#This file is the author's own work and represents their interpretation of the #
#song. You may only use this file for private study, scholarship, or research. #
#------------------------------------------------------------------------------#


Song: Tuesday's Gone
Artist: Lynyrd Skynyrd

C          G  Am                  F
Train roll on, many ...
C          G      Am (add F)
Riding my ....


C          G         Am (add F)
Tuesday's gone ...

...can't remember the words off hand.


I Could be wrong, but I remember it like this:


A          E  F#m                  D
Train roll on, many miles ...
A             E      D
I'm riding my ...


A          G         D
Tuesday's gone with ...

So it's   A  E  F#m  D 
and later A  E  D  
          A  G  D


chord formations(all basic forms):

A   -02220
E   022100
F#m 244222
D   --0232
G   320003


and here is the intro (as far as I can tell and remember). 
The bridge is the same with little variations.

e-------------------------------------------------------------------------
b-------------------------------------------------------------------------
g-4^6---^4^6^4-2-----4^---6^4^6^4-------4^6^4^6^4-------|2----------------
d---------------------------------2---------------4--------------------2h4
a----------------------------------------------------------5\4/5---2h4----
e-------------------------------------------------------------------------
        ^ = bend                                       | = pause  / \ = slide
        h = hammer-on

e-----------------------------------------0-----------0-----------0-------
b-----5-----5.....|-------5-5-----5-----------3-----------3-----------3---
g-2h4-4^6...6^4-2---------4-4h6---4---------------------------------------
d-------------------2-----------------0-----------0-----------0-----------
a-------------------------------------------------------------------------
e-------------------------------------------------------------------------
        .. = hold or let ring
             
e----0--------------------------------------------------------------------
b--------3---2h3h5p2------------------------------------------------------
g--------------------2----------------------------------------------------
d0------------------------------------------------------------------------
a-------------------------------------------------------------------------
e-------------------------------------------------------------------------
                  p = pull-off


e-----0-----------2-----------3-----------5-------------------------------
b---------3-----------3-----------3-----------3---------------------------
g-------------------------------------------------------------------------
d-0-----------0-----------0-----------0-----------------------------------
a-------------------------------------------------------------------------
e-------------------------------------------------------------------------



Comments about this tab

No comments/corrections found. Add your own



2005 ZMG, Inc.- All Right Reserved - Privacy Statement