Rockin Tabs Home

 :: Home > Tabs > L > Lynyrd Skynyrd > On The Hunt

Lynyrd Skynyrd - On The Hunt


This tab has not yet been rated for accuracy.Sorry, but you must be logged in to rate this tab so we can tell which songs you've already voted on, which will help prevent cheating.
Click here to log-in, or you can click here to register.
(Registration is free)


Click here for a plain text version of this song (for better printing)

Add this tab to your list of favorite tabs




#----------------------------------PLEASE NOTE---------------------------------#
#This file is the author's own work and represents their interpretation of the #
#song. You may only use this file for private study, scholarship, or research. #
#------------------------------------------------------------------------------#


Artist : Lynyrd Skynyrd
Song : On The Hunt

h - hammer on
p - pull off
b - bend string up
bb- 1 1/2 tone bend
H - hold bend
r - release bend
/ - slides
~ - vibrato
t - right hand tap
x - play 'note' with heavy damping



E----------------------------------------------------------
B----------------------------------------------------------
G----------------------------------------------------------
D---4-------4-------------------X--4-----4-------2---------
A---2---2/5---5/4---------------X--2-2/5---5/4---0---------
E------------------5--4br---0------------------------------

E----------------------------------------------------------
B----------------------------------------------------------
G-----16--16rp14-16~---------------------------------------
D-----------------------4-----4-----------------X-4--------
A-----------------------2-2/5---5/4-------------X-2--2/5---
E-----------------------------------5-4br--0---------------

E----------------------------------------------------------
B----------------------------------------------------------
G----------------------------------------------------------
D---4-------2----------------------------------------------
A-----5/4---0----------------------------------------------
E----------------------------------------------------------



Verse

E----------------------------------------------------------
B----------------------------------------------------------
G----------------------------------------------------------
D---4-------4-------------------X--4-----4-------2---------
A---2---2/5---5/4---------------X--2-2/5---5/4---0---------
E------------------5--4br---0------------------------------



Chorus


E----------------------------------------------------------
B----------------------------------------------------------
G--------4-----7------2-------------------4----7----2------
D---2----4-----7------2----------------2--4----7----2------
A---2----2-----5------0---0-0-0-0-2br--2--2----5----0------
E---0----------------------------------0-------------------

E----------------------------------------------------------
B----------------------------------------------------------
G---2------------------------------------------------------
D---2--5-----4---------------------------------------------
A---0--5-----2---------------------------------------------
E------3---------------------------------------------------


Solo 1


E-------7---------------------------------10~---12b-10-----
B----/7---7--10b---12b-12b-12b-12brp10-12--------------12~-
G----------------------------------------------------------
D----------------------------------------------------------
A----------------------------------------------------------
E----------------------------------------------------------


Repeat verse then chorus

Solo 2


E---------------------------------------------------17-19--
B--------------------------------------------15-17b--------
G-----4H-4Hp2-4br-~---4/7~-/9-/11--/14--/16~---------------
D----------------------------------------------------------
A----------------------------------------------------------
E----------------------------------------------------------

E---19---------17b-17b--17r--------------------------------
B-------17r-15---------------15--------------15------------
G-------------------------------16bb---14-16----16---------
D----------------------------------------------------------
A----------------------------------------------------------
E----------------------------------------------------------

E--------------------------------------10----10----10------
B----------------------------------/10----10----10----h12--
G-----9b-9brp7----------------7~---------------------------
D--------------9-7-9----9-7-9------------------------------
A----------------------------------------------------------
E----------------------------------------------------------

E----------------------------10-------12b-12rp10-----------
B----12-10-12bb-12bb---10-12----12~--------------12-10-----
G----------------------------------------------------------
D----------------------------------------------------------
A----------------------------------------------------------
E----------------------------------------------------------

E----------------------------------------------------------
B---7-7----7-7---------7-7-10-10b-r-b-10rp7----------------
G---7-7----7-7----7-9b----------------------9brp7---7------
D--------9------9---------------------------------9--------
A----------------------------------------------------------
E----------------------------------------------------------

E----------------------------------------------------------
B----7-10---7----------------------------------7/6/5~------
G---------9---7-9---7--------------------------------------
D-----------------9---7-9---7-----------9~-----------------
A-------------------------9---9/7-5-7p5--------------------
E----------------------------------------------------------

E------10-------10------10------10--------12--------12-----
B---------10-------10------10------10--------12--------12--
G---9b-------9b-------9-------9-------11b-------11b--------
D----------------------------------------------------------
A----------------------------------------------------------
E----------------------------------------------------------

E------12-------12--------10-------10------10--------------
B---------12-------12--------10-------10------10-7/10------
G---11-------11--------9b-------9b-------9-----------------
D----------------------------------------------------------
A----------------------------------------------------------
E----------------------------------------------------------


E--------------------------------17b-17b-17r-17r-17r-------
B-----10/12~----15-17r-15-----15----------------------15---
G--------------------------16------------------------------
D----------------------------------------------------------
A----------------------------------------------------------
E----------------------------------------------------------


E----------------------------------------------------------
B---------------------15-----------------------------------
G---16---16bb---14-16----16~-------------------------------
D----------------------------------------------------------
A--------------------------------X--12-12/11-11/9-9/7------
E----------------------------------------------------------


Repeat verse and chorus

Outro


E--------0-----0------0-----0------0-----0-------0-----0---
B----------5-----5------5-----5------5-----5-------5-----5-
G----/4------4-----/2-----2-----/7-----7------/2-----2-----
D----------------------------------------------------------
A----------------------------------------------------------
E----------------------------------------------------------


Solo 3 :


E----------------------------------------------------------
B----------------------------------------------------------
G---11b-11b-11brp9-11~---11/13-11/9-11~--11-11-9/7-9~------
D----------------------------------------------------------
A----------------------------------------------------------
E----------------------------------------------------------

E----------------------------------------------------------
B---------12-----------------------------------------------
G---9-11b----11r-11br9-11br---7-9-11-9~--9h11p9/7-9~-------
D----------------------------------------------------------
A----------------------------------------------------------
E----------------------------------------------------------

E----------12--------12-------12------12-------10----------
B-------------12--------12-------12------12-------10-------
G----9-11b-------11b-------11-------11------9b-------------
D----------------------------------------------------------
A----------------------------------------------------------
E----------------------------------------------------------

E-------10-------10------10--------------------------------
B----------10-------10------10-----------------------------
G----9b--------9-------9--------etc...---------------------
D----------------------------------------------------------
A----------------------------------------------------------
E----------------------------------------------------------



Comments about this tab

No comments/corrections found. Add your own



2005 ZMG, Inc.- All Right Reserved - Privacy Statement