Rockin Tabs Home

 :: Home > Tabs > L > Lynyrd Skynyrd > Junkie

Lynyrd Skynyrd - Junkie


This tab has not yet been rated for accuracy.Sorry, but you must be logged in to rate this tab so we can tell which songs you've already voted on, which will help prevent cheating.
Click here to log-in, or you can click here to register.
(Registration is free)


Click here for a plain text version of this song (for better printing)

Add this tab to your list of favorite tabs




#----------------------------------PLEASE NOTE---------------------------------#
#This file is the author's own work and represents their interpretation of the #
#song. You may only use this file for private study, scholarship, or research. #
#------------------------------------------------------------------------------#


Song : Junkie
Artist : Lynyrd Skynyrd
Album : Gold and platinum

h   - hammer on
p   - pull off
b   - bend string up
bb  - 1 1/2 tone bend
H   - hold bend
r   - release bend
/   - slides
~   - vibrato
x   - play 'note' with heavy damping
(*) - harmonics


Guitar 1


Repeat twice


    PM............................................

E----------------------------------------------------------
B-----------------------------------------------3----------
G---------------------------------------4-2-4---2----------
D---------------------------------------4-2-4--------------
A----2---2---2-2---2----2----2-----0-----------------------
E----0---0---0-0---3----0----3-----------------------------

E----------------------------------------------------------
B----------------------------------------------------------
G----------------------------------------------------------
D----0---2p0-----------------------------------------------
A-------------2p0------------------------------------------
E------------------3~---0----------------------------------

Then

Guitar 1

E----------------------------------------------------------
B----------------------------------------/4---2--4---7~----
G----------------------------------------/4---2--4---7~----
D----------------------------------------------------------
A----2---2---2-2---2----2----2-----0-----------------------
E----0---0---0-0---3----0----3-----------------------------

E----------------------------------------------------------
B----------------------------------------------------------
G----------------------------------------------------------
D----0---2p0-----------------------------------------------
A-------------2p0------------------------------------------
E------------------3~---0----------------------------------



Guitar 2

E----------------------------------------------------------
B----------------------------------------------------7~----
G----------------------------------------------------7~----
D----------------------------------------/9-7--9-----------
A----2---2---2-2---2----2----2-----0-----------------------
E----0---0---0-0---3----0----3-----------------------------

(1 out of 2)

E----------------------------------------------------------
B----------------------------------------------------------
G----7---9p7-----------------------------------------------
D-------------9p7------------------------------------------
A------------------10~-------------------------------------
E----------------------------------------------------------



These are also the chorus riffs...  Use Wah-Wah for guitar 1








Verse

Guitar 1


E----------------------------------------------------------
B----------------------------------------------------------
G----------------------------------------------------------
D----------------------------------------------------------
A----------------------------------------------------------
E-------4~----------3~----------7p5/10~--------------------


Guitar 2


E-------0-------3------------------------------------------
B-------0-------3---------------4/2/7~---------------------
G--------------(4)--------------4/2/7~---------------------
D----------------------------------------------------------
A----------------------------------------------------------
E----------------------------------------------------------

Chorus (repeat main riff)



Solo Background : (Guitar 2)

Repeat that :

E----------------------------------------------------------
B-------------12/------------------------------------------
G-------------12/------------------------------------------
D----------------------------------------------------------
A----------------------------------------------------------
E----0-0-0----------0-0--5--0--0--7--0--0--5---------------


Solo (guitar 1 Wah-Wah) :

H means Hold bend

E----------------------------------------------------------
B----------------------------------------------------------
G----7b---7b----7H--7Hrp4---7b-7b--------------------------
D----------------------------------------------------------
A----------------------------------------------------------
E----------------------------------------------------------

E----------------------------------------------------------
B-----------------------8----------------------------------
G----7b-----7H--7Hrp4------7b--7b--------------------------
D----------------------------------------------------------
A----------------------------------------------------------
E----------------------------------------------------------

E----------------------------------------------------------
B----------------------------------------------------------
G-----7--4-------------------------------------------------
D-----------7b-7brp5-----7--5-----------5------------------
A---------------------7--------7--5--7---------------------
E----------------------------------------------------------

E----------------------------------------------------------
B----------------------------------------------------------
G----------------------------------------------------------
D----7b---7b--7b---7b---7b----7b---7b---7b---7b----7brp5---
A----------------------------------------------------------
E----------------------------------------------------------

E----------------------------------------------------------
B----------------------------------------------------------
G----------------------------------------------------------
D---------7--5---------------------------------------------
A-----7----------7-5-7-------------------------------------
E----------------------------------------------------------

E---------12-----------12-----------------------12---------
B-------------12---15-------15b--15b---------------12------
G---/13-----------------------------------------------15b--
D----------------------------------------------------------
A----------------------------------------------------------
E----------------------------------------------------------

E----------------------------------------------------------
B---15b-------15--12-------12------------------------------
G---------------------14b------14--12--14--12--------------
D----------------------------------------------14-12-14~---
A----------------------------------------------------------
E----------------------------------------------------------

E----------------------------------------------------------
B-------------15-----15------------------------------------
G----12---14b----14b-----14b---14brp12---14------12-14-12--
D--------------------------------------------14------------
A----------------------------------------------------------
E----------------------------------------------------------


E----------------------------------------------------------
B----------------------------------------------------------
G---------9---12b---12H--12H---12H----12---12b----9h12p9~--
D-----12---------------------------------------------------
A----------------------------------------------------------
E----------------------------------------------------------




Then :

Guitar 1


E----------------------------------------------------------
B-----12/--------------------------------------------------
G-----12/------------9--7----------------------------------
D-----------------9------------9-8-7--5--------------------
A----------------------------------------7-----------------
E----------------------------------------------------------


Guitar 2 :

E----------------------------------------------------------
B------5/--------------------------------------------------
G------4/--------------------------------------------------
D-------------------7--5-----------------------------------
A----------------7-------------7-6-5--3--------------------
E----------------------------------------5-----------------


The last time :

Guitar 1 :

E----------------------------------------------------------
B-----12/--------------------------------------------------
G-----12/-----------7---7----------------------------------
D-----------------9---9--------9-8-7--5--------------------
A----------------------------------------7-----------------
E----------------------------------------------------------

Guitar 2 :

E----------------------------------------------------------
B------5/--------------------------------------------------
G------4/--------------------------------------------------
D------------------5---5-----------------------------------
A----------------7---7---------7-6-5--3--------------------
E----------------------------------------5-----------------




Ending :

Guitar 1 :


E----------------------------------------------------------
B----------------------------------------------------------
G-----9b---9b-------9brp7----------------------------------
D--------------------------9---7---5-----------------------
A--------------------------------------7-------------------
E----------------------------------------------------------


Guitar 2 :


E----------------------------------------------------------
B----------------------------------------------------------
G-----12b---12b-----12brp10--------------------------------
D----------------------------12--9-------------------------
A-----------------------------------12--11-----------------
E----------------------------------------------------------



Comments about this tab

No comments/corrections found. Add your own



2005 ZMG, Inc.- All Right Reserved - Privacy Statement