Rockin Tabs Home

 :: Home > Tabs > B > Beastie Boys > Girls

Beastie Boys - Girls


This tab has not yet been rated for accuracy.Sorry, but you must be logged in to rate this tab so we can tell which songs you've already voted on, which will help prevent cheating.
Click here to log-in, or you can click here to register.
(Registration is free)


Click here for a plain text version of this song (for better printing)

Add this tab to your list of favorite tabs




#----------------------------------PLEASE NOTE---------------------------------#
#This file is the author's own work and represents their interpretation of the #
#song. You may only use this file for private study, scholarship, or research. #
#------------------------------------------------------------------------------#


Song............GIRLS
Author..........Beasty Boys

Normally this song is not played by guitar (just xylophone,
drum and voice), but you can play the xylophone part with
your guitar. For the correct timing just listen to the song.


INTRO:
------
e:--------------------------------------------------|
B:--------------------------------------------------|
G:--------------------------------------------------|
D:-----------3-3-----3-3---2-3-3-----3-3---2-3-3----|
A:--3--5--3------3-3-----3-------3-3-----3-------3-3|
E:--------------------------------------------------|
                   drum (hi hat) enters here  ^

e:-----------------|
B:-----------------|
G:-----------------|
D:-3-3---2-3-------|
A:-----3-----------|
E:-----------------|

The intro is played during the whole song. If you want to
know it exactly, check this:
(It looks a bit confusing, but it seems to be the best
method to tab it exactly.)

PART A1:
--------
e:--------------------------------|
B:--------------------------------|
G:--------------------------------|
D:--3-3-----3-3-------------------|
A:------3-3-----3-4-5-5-----5-5---|
E:----------------------5-5-----5-|

PART A2:
--------
e:---------------------------------|
B:---------------------------------|
G:---------------------------------|
D:-2-3-3-----3-3-------------------|
A:-------3-3-----3-4-5-5-----5-5---|
E:-----------------------5-5-----5-|

PART B:           PART C:
-------           -------
e:-------|        e:------------|
B:-------|        B:------------|
G:-------|        G:------------|
D:--2-3--|        D:------------|
A:-------|        A:--3--5--3---|
E:-------|        E:------------|

Do it like this:
([BG] means that the backroud voices enter)

INTRO

A1       A2 A2 A2 B
GIRLS  ...

  C                 A1   A2 A2
I ..

  C         [BG]    A1 A2 A2 A2 A2 A2 A2 B
Back ..

  C           [BG]  A1 A2 A2 A2 A2 A2 A2 B
I hope ..

                              INTRO
Jockin' Mike D. to my dismay...


Girls - to do the dishes...

     [BG]
Girls - that's all I really want is girls



Comments about this tab

No comments/corrections found. Add your own



2005 ZMG, Inc.- All Right Reserved - Privacy Statement