Rockin Tabs Home

 :: Home > Tabs > W > White Stripes > Dead Leaves and the Dirty Ground

White Stripes - Dead Leaves and the Dirty Ground


This tab has not yet been rated for accuracy.Sorry, but you must be logged in to rate this tab so we can tell which songs you've already voted on, which will help prevent cheating.
Click here to log-in, or you can click here to register.
(Registration is free)


Click here for a plain text version of this song (for better printing)

Add this tab to your list of favorite tabs




#----------------------------------PLEASE NOTE---------------------------------#
#This file is the author's own work and represents their interpretation of the #
#song. You may only use this file for private study, scholarship, or research. #
#------------------------------------------------------------------------------#


Artist: White Stripes
Song: Dead leaves and the dirty ground
Album: White Blood Cells


Key_________________
|h = hammer on       |
|p = pull off        |
|____________________|


INTRO :Play note on fat E as power chords and squiel
the 17th to the 18th high E to start

e|--17^(18)-----------------------------|----------
b|--------------------------------------|----------
g|--------------------------------------|----------
d|--------------------------------------|----------
a|--------------------------------------|----------
E|-----------5-5-5-0--3-3-3-0-2-2-0-1-1-0-5--|----3-- x two then two more
times with power chords



Pick VERSES :x2 before you start singing, then strum while singing
                
e|--------------------------------------------------
b|---3p2----------------------------------------2---
g|--2---2------------0-----------0--------0-----2---
d|-2-----2---------0---0-------2---2----4---4---2---
a|-------------0h2-----------3---------5------------
E|----------0h3-------------------------------------

Dead leaves and......

while strumming dont play:

e|-----------------------------------------------
b|-----------------------------------------------
g|----0-----0----------------------------------
d|----2---- 4----------------------------------
a|----3-----5------------------------------------
E|-----------------------------------------------
instead, play this:
e|-----------------------------------------------
b|-----------------------------------------------
g|----5-----7------------------------------------
d|----5-----7--------------------------------
a|----3-----5------------------------------------
E|-----------------------------------------------

(break)


                         
e|--------------------------------------------------
b|--------------------------------------------------
g|-------------------5-5--7-7-----------------------
d|--7- 7--7--5--5----5-5--7-7---5-------------------
a|--7- 7--7--5--5----3-3--5-5---5-------------------
E|--5--5--5--3--3---------------3-------------------


(slight change here)
e|--------------------------------------------------
b|--------------------------------------------------
g|--------------------------------------------------
d|--------------------------------------------------
a|--------------------------------------------------
E|--5---3---2--1---5------3-- back into verse ------


(long break)

(first part x2)

 
e|--------------------------------------------------
b|--------------------------------------------------
g|---7-7-7-7-7-7-7-7--------------------------------
d|---7-7-7-7-7-7-7-7--7-7-7-75-7-7-7-7--------------
a|---5-5-5-5-5-5-5-5--7-7-7-75-7-7-7-7--------------
E|--------------------5-5-5-53-5-5-5-5--------------

e|--------------------------------------------------
b|--------------------------------------------------
g|---7-7-7-7-7-7-7-7--------------------------------
d|---7-7-7-7-7-7-7-7-----3-3-3-3--5-5-5-5-----------
a|---5-5-5-5-5-5-5-5-----3-3-3-3--5-5-5-5-----------
E|-----------------------1-1-1-1--3-3-3-3-----------

e|--------------------------------------------------
b|--------------------------------------------------
g|--------------------------------------------------
d|--------------------------------------------------
a|--------------------------------------------------
E|--5---3---2--1---5------3-- back into verse ------

(pick end)



Comments about this tab

No comments/corrections found. Add your own



2005 ZMG, Inc.- All Right Reserved - Privacy Statement