Rockin Tabs Home

 :: Home > Tabs > A > Ataris, The > Hero Dies in this One, The

The Ataris - Hero Dies in this One, The


This tab has not yet been rated for accuracy.Sorry, but you must be logged in to rate this tab so we can tell which songs you've already voted on, which will help prevent cheating.
Click here to log-in, or you can click here to register.
(Registration is free)


Click here for a plain text version of this song (for better printing)

Add this tab to your list of favorite tabs




#----------------------------------PLEASE NOTE---------------------------------#
#This file is the author's own work and represents their interpretation of the #
#song. You may only use this file for private study, scholarship, or research. #
#------------------------------------------------------------------------------#


The Ataris
The Hero Dies in this One Guitar Tab
from the Album "So Long, Astoria"
 
Intro: (this is how I play it, might not be exactly what the strings
play)
e------------------------------------------------------------------
B------------------------------------------------------------------
G------7---7---6---6---6-----7---7---6---6---6---------------------
D---(7)--7---7---7---7----(7)--7---7---7---7-----------------------
A--5---------------------5-----------------------------------------
E------------------------------------------------------------------
 
you can also play something like:
e------------------------------------------------------------------
B------------------------------------------------------------------
G--7---7---6---6---7---7---6---6-----------------------------------
D----7---7---7---7---7---7---7-------------------------------------
A------------------------------------------------------------------
E------------------------------------------------------------------
 
Verse:
 
1st guitar: (palm muted) 2x
e------------------------------------------------------------------
B------------------------------------------------------------------
G--7---------------------------------------7-----------------------
D--7---------------------5-----------------7------------5----------
A--5---------------------5-----------------5------------5----------
E------------------------3------------------------------3----------
 
      as I leave here today, appartement 108...      ...in my heart
   anderson is...    ...leaves...      ...seasons... ...comfort...
 
2nd guitar plays the same clean
 
Prechorus:
 
both guitars: 2x
e------------------------------------------------------------------
B------------------------------------------------------------------
G-----------------------------------------7------------------------
D--7-------------------5------------------7------------------------
A--7-------------------5------------------5------------------------
E--5-------------------3-------------------------------------------
 
        sometimes this all feels like a dream. I'm waiting for...
  wake me up                   from this life
 
2nd Verse:
 
1st guitar: same as 1st Verse
 
2nd guitar: 2x (you can play the note on the a string alone as well)
e---------------------------
B---------------------------
G--9-----11-----7-----------
D--x------x-----x-----------
A--7------9-----5-----------
E---------------------------
   D  G       <- chord of 1st guitar for reference
 
then:
note: I'm not totally sure about this part as it is very silent on the
record.
if you disagree with my interpretation just play around with these
octaves.
e-------------------------------------------
B-------------------------------------------
G--9-----11-12-11-------9-----11-12-11------
D--x------x--x--x-------x------x--x--x------
A--7------9-10--9-------7------9-12-11------
E-------------------------------------------
   D   G  
 
e-------------------------------------------
B-------------------------------------------
G--9-----11-12-11------12------11-7---------
D--x------x--x--x-------x-------x-x---------
A--7------9-10--9------10-------9-5---------
E-------------------------------------------
   D   G 
 
2nd Prechorus: same as 1st
 
Chorus:
 
1st guitar:
e-----------------------------------------------------------------
B-----------------------------------------------------------------
G--------------------------------7--------------------------------
D--2--------------5--------------7-----------7--------------------
A--2--------------5--------------5-----------7--------------------
E--0--------------3--------------------------5--------------------
      I'll never be the same without you. I love you more than you
 
2nd guitar:
e------------------------------------------------------------------
B------------------------------------------------------------------
G-------------------------------11-----------6---------------------
D--2--------------5--------------x-----------x---------------------
A--2--------------5--------------9-----------4---------------------
E--0--------------3------------------------------------------------
 
1st guitar:
e------------------------------------------------------------------
B------------------------------------------------------------------
G----4-----------------------7-------------------------------------
D----4----------5------------7----------------7--------------------
A----2----------5------------5----------------7--------------------
E---------------3-----------------------------5--------------------
will ever know     so maybe now you finally know
 
2nd guitar:
e------------------------------------------------------------------
B------------------------------------------------------------------
G----9-------9--7-----------14-------------------------------------
D----x-------x--x------------x-------------------------------------
A---11-------7--5-----------12-------------------------------------
E------------------------------------------------------------------
 
1st guitar:
e-------------------------------------------------------------------------
B-------------------------------------------------------------------------
G--------------------------------7---------------------------4------------
D--2--------------5--------------7-----------7---------------4-------5~---
A--2--------------5--------------5-----------7---------------2-------5~---
E--0--------------3--------------------------5-----------------------3~---
..times...        and...        you...      keep...         down
 
2nd guitar:
e-------------------------------------------------------------------------
B-------------------------------------------------------------------------
G-11--12--11--9---7-------------14-------------12-11-12-----11----9--7~---
D--x---x---x--x---x--------------x--------------x--x--x------x----x--x~---
A--9--10---9--7---5-------------12-------------10--9-10------9----7--5~---
E-------------------------------------------------------------------------
 
then:
2nd guitar:
e------------------
B------------------
G------------7~----
D------------7~----
A------------5~----
E------------------
you must go on
 
repeat Intro 1x
 
repeat Verse
 
repeat Prechorus
 
repeat Chorus
 
repeat Intro several times
 
Outro: stay who you...
 
1st guitar: 2x
e------------------------------------------------------------------
B------------------------------------------------------------------
G--7---------------4-----------------------------------------------
D--7---------------4---------------2---------------5---------------
A--5---------------2---------------2---------------5---------------
E----------------------------------0---------------3---------------
...are           you must go...
...on
 
2nd guitar: (listen to CD for strumming pattern, most notes are played 3
times) 2x
e--0-2-------------0-2-------0-----3-2---0---------3-2-------------
B------3-2-3-----------3-2-3-----------3---------------3-----------
G------------------------------------------------------------------
D------------------------------------------------------------------
A------------------------------------------------------------------
E------------------------------------------------------------------
 
then:
1st guitar:
e------------------------------------------------------------------
B------------------------------------------------------------------
G--7---------------4-----------------------------------------------
D--7---------------4---------------2---------------5---------------
A--5---------------2---------------2---------------5---------------
E----------------------------------0---------------3---------------
     stay...      are... stay...  are     aahaahaa  
 
2nd guitar:
e------------------------------------------------------------------
B------------------------------------------------------------------
G--14--------12-11-14--------------12-11-7---9-11--12-11-7---------
D---x---------x--x--x---------------x--x-x---x--x---x--x-x---------
A--12--------10--9-12--------------10--9-5---7--9--10--9-5---------
E------------------------------------------------------------------
 
1st guitar:
e------------------------------------------------------------------
B------------------------------------------------------------------
G--7---------------4-----------------------------------------------
D--7---------------4---------------2-2-2~----------5-5-5~----------
A--5---------------2---------------2-2-2~----------5-5-5~----------
E----------------------------------0-0-0~----------3-3-3~----------
     stay...      are... stay...  are  
 
2nd guitar:
e------------------------------------------------------------------
B------------------------------------------------------------------
G--14--------12-11-14--------------12-11-7---9-11--12-11-7---------
D---x---------x--x--x---------------x--x-x---x--x---x--x-x---------
A--12--------10--9-12--------------10--9-5---7--9--10--9-5---------
E------------------------------------------------------------------



Comments about this tab

No comments/corrections found. Add your own



2005 ZMG, Inc.- All Right Reserved - Privacy Statement