Rockin Tabs Home

 :: Home > Tabs > A > Ataris, The > So Long Astoria

The Ataris - So Long Astoria


This tab has not yet been rated for accuracy.Sorry, but you must be logged in to rate this tab so we can tell which songs you've already voted on, which will help prevent cheating.
Click here to log-in, or you can click here to register.
(Registration is free)


Click here for a plain text version of this song (for better printing)

Add this tab to your list of favorite tabs




#----------------------------------PLEASE NOTE---------------------------------#
#This file is the author's own work and represents their interpretation of the #
#song. You may only use this file for private study, scholarship, or research. #
#------------------------------------------------------------------------------#


The Ataris
So Long Astoria Guitar Tab
from the Album "So Long, Astoria"
 
Intro 2x (1st time lo-fi style)
 
1st guitar
G--7-------------------------------4---------------0----
D--7---------------5---------------4---------------2----
A--5---------------5---------------2---------------2----
E------------------3------------------------------------
 
2nd guitar
G--7---7---7---7---6---6---6---6---7---7---7---7---9---9---9---9----
D----7---7---7---7---7---7---7---7---7---7---7---7---7---7---7---7--
 
Intro continued
 
1st guitar: plays intro progression one more time
2nd guitar (not quite sure, hard to figure out exactly)
G------6-7-------6-7-------6-7---7---7---7----
D--5-7-------5-7-------5-7---------7---7---6--
 
G--same----------------same-------------------
D-----------same-----------------7~-----------
 
Verse
 
1st guitar: nothing
2nd guitar
G--7-- still the                  --6--
D--x--    same chord      end on  --x--
A--5--                            --4--
E-----                            -----
 
It was the...    ...empty street
 
Verse continued (sometimes I still see myself...)
 
1st guitar plays intro chords
2nd guitar something like: 4x
G--7-6---7-6---7----
D------7-----7---6--
 
Chorus
 
1st guitar
G------------------------  -----4--------2--
D--2-2------4-4------5-5-  -----4--------2--
A--2-2------4-4------5-5-  -----2--------0--
E--0-0------2-2------3-3-  -----------------
 
       life is    only...   we make... back what belongs to me
 
2nd guitar:
G------7--------9-------11----some--melodies-
D------x--------x--------x------and--octaves-
A------5--------7--------9---------any--help-
E------------------------------------welcome-
 
repeat Chorus
 
Chorus ending:
 
1st guitar:
G----2---------------------------------------
D----2------------2---------------5-------7~-
A----0------------2---------------5-------7~-
E-----------------0---------------3-------5~-
...shipwrecks... gone faster... smell after it rains
 
2nd guitar plays some alternation of 1st intro melody specific ideas
welcome
 
repeat intro 1x with some alternation in 2nd guitars melody
repeat verse (without guitar in the first half)
repeat chorus
 
bridge:
 
1st guitar:
G--7-------------------7--------------------4---------------------2--
D--7-------------------7--------------------4---------------------2--
A--5-------------------4--------------------2---------------------0--
E--------------------------------------------------------------------
 

..rains
 
2nd guitar:
G--7---------------7/9\6----------------6/7\4-----------------4/6\2---
D--x---------------x/x\x----------------x/x\x-----------------x/x\x---
A--5---------------5/7\4----------------4/5\2-----------------2/4\0---
E---------------------------------------------------------------------
 
outro:
 
1st guitar
G--7------------7-----------4--------2----------------2------
D--7------------7-----------4--------2-------2--------2------
A--5------------4-----------2--------0-------2--------0------
E--------------------------------------------0---------------
    So long, Astoria     I found... buried...even... handed
 
2nd guitar:
G--7------------6-----------4--------2--- ----12--11--9--7-- play various
D--x------------x-----------x--------x--- -----x---x--x--x-- melodies
A--5------------4-----------2--------0--- ----10---9--7--5-- with these
E---------------------------------------- ------------------ octaves
 
repeat a few times
 
last time:
 
1st guitar:
G--7------------7-----------4--------2--------------------------------------
D--7------------7-----------4--------2---------------5-5------5-5-----5--5--
A--5------------4-----------2--------0---------------5-5------5-5-----5--5--
E----------------------------------------------------3-3------3-3-----3--3--
 
   my wish              ...back     taking them all back
 
2nd guitar:
G--7------------6-----------4--------2---------------7-6------7-6-----7--7--
D--x------------x-----------x--------x---------------x-x------x-x-----x--x--
A--5------------4-----------2--------0---------------5-4------5-4-----5--5--
E---------------------------------------------------------------------------



Comments about this tab

No comments/corrections found. Add your own



2005 ZMG, Inc.- All Right Reserved - Privacy Statement