Rockin Tabs Home

 :: Home > Tabs > A > Ataris, The > I Wont Spend Another Night Alone

The Ataris - I Wont Spend Another Night Alone


This tab has not yet been rated for accuracy.Sorry, but you must be logged in to rate this tab so we can tell which songs you've already voted on, which will help prevent cheating.
Click here to log-in, or you can click here to register.
(Registration is free)


Click here for a plain text version of this song (for better printing)

Add this tab to your list of favorite tabs




#----------------------------------PLEASE NOTE---------------------------------#
#This file is the author's own work and represents their interpretation of the #
#song. You may only use this file for private study, scholarship, or research. #
#------------------------------------------------------------------------------#


I Wont Spend Another Night Alone - The Atari's

Intro/Verse/chorus:  Guitar 1  (Muted through chords strummed 12 times) (Through twice)
e|---------------------------------------------------------------------------|
B|---------------------------------------------------------------------------|
G|---5--7--3-----------------------------------------------------------------|
D|3--5--7--3-----------------------------------------------------------------|
A|3--3--5--1-----------------------------------------------------------------|
E|1--------------------------------------------------------------------------|

Guitar 2 (i think)

e|---------------------------------------------------------------------------|
B|---------------------------------------------------------------------------|
G|---------------------------------------------------------------------------|
D|3-3-3-3-3-3-------------------------------------3-3-3-3-3-3-2-2-2-0-0-0----|
A|3-3-3-3-3-3-1-1-1-0-0-0-3-3-3-3-3-3-1-1-1-0-0-0-0-0-0-0-0-0-0-0-0-3-3-3----|
E|1-1-1-1-1-1-1-1-1-1-1-1-3-3-3-3-3-3-3-3-3-3-3-3----------------------------|

e|---------------------------------------------------------------------------|
B|---------------------------------------------------------------------------|
G|---5-2---3-2---5-3-2-------------------------------------------------------|
D|-3-----3-----3-------------------------------------------------------------|
A|---------------------------------------------------------------------------|
E|---------------------------------------------------------------------------|

Verse repeat intro twice again

Chorus Again repeat the intro twice!!!

Verse repeat twice

Post Chorus

Guitar 1 through twice

e|---------------------------------------------------------------------------|
B|---------------------------------------------------------------------------|
G|7-7-7-7--7-5--3-3-3-3--3-2--------------------------5-5-5-5-5-5-5-5-5-5-5-5|
D|7-7-7-7--7-5--3-3-3-3--3-2--3-3-3-3-3-3-3-3-3-3-3-3-5-5-5-5-5-5-5-5-5-5-5-5|
A|5-5-5-5--5-3--1-1-1-1--1-0--3-3-3-3-3-3-3-3-3-3-3-3-3-3-3-3-3-3-3-3-3-3-3-3|
E|----------------------------1-1-1-1-1-1-1-1-1-1-1-1------------------------| 

Guitar 2

e|---------------------------------------------------------------------------|
B|---------------------------------------------------------------------------|
G|7-7-7-7--7-9-10-10-10-10--10-12--14-14-14-14-14-14--14-14-14-14--15--15-15-|
D|x-x-x-x--x-x--x--x--x--x---x--x---x--x--x--x--x--x---x--x--x--x---x---x--x-|
A|5-5-5-5--5-7--8--8--8--8---8-10--12-12-12-12-12-12--12-12-12-12--13--13-13-|
E|---------------------------------------------------------------------------|

e|---------------------------------|
B|---------------------------------|
G|15-15-15-15-12-12-12-12-12-12----|    2nd time through end on 17
D|-x--x--x--x--x--x--x--x--x--x----|                             x
A|13-13-13-13-10-10-10-10-10-10----|                            15
E|---------------------------------|

Bridge (The things you make me wanna do......)

Guitar 1

e|---------------------------------------------------------------------------|
B|---------------------------------------------------------------------------|
G|-----3---------5-----------------------------------------------------------|
D|5----3----3----5-----------------------------------------------------------|
A|5----1----3----3-----------------------------------------------------------|
E|3---------1----------------------------------------------------------------|

Guitar 2

e|---------------------------------------------------------------------------|
B|---------------------------------------------------------------------------|
G|-12-12-12-12-12-12-12-14--15-15-15-15-15-15-15-15-12--14-14-14-14-14-14-14-|
D|--x--x--x--x--x--x--x--x---x--x--x--x--x--x--x--x--x---x--x--x--x--x--x--x-|
A|-10-10-10-10-10-10-10-12--13-13-13-13-13-13-13-13-10--12-12-12-12-12-12-12-|
E|---------------------------------------------------------------------------|

e|---------------------------------------------------------------------------|
B|---------------------------------------------------------------------------|
G|14-14-14-14-14--15-15-15-15-15-15-15-15-14-12-12-12-12-12-12-12-12-14------|
D|-x--x--x--x--x---x--x--x--x--x--x--x--x--x--x--x--x--x--x--x--x--x--x------|
A|12-12-12-12-12--13-13-13-13-13-13-13-13-12-10-10-10-10-10-10-10-10-12------|
E|---------------------------------------------------------------------------|

e|---------------------------------------------------------------------------|
B|---------------------------------------------------------------------------|
G|15-15-15-15-15-15-15-15--16-16-16-16--16-16-16-16--16-16-16-16-16-17--17x--|
D|-x--x--x--x--x--x--x--x---x--x--x--x---x--x--x--x---x--x--x--x--x--x---xx--|
A|13-13-13-13-13-13-13-13--14-14-14-14--14-14-14-14--14-14-14-14-14-15--15x--|
E|---------------------------------------------------------------------------|


Solo:  
e|-----------------------------6-5---8-6-5--6-5---8-6-5----------------------|
B|-6-5-6-5-6-5-6-8-6-5-6-5-6-5-----6------------6-------6-5-6-8-6-5-6-5-6-8--|
G|---------------------------------------------------------------------------|
D|---------------------------------------------------------------------------|
A|---------------------------------------------------------------------------|
E|---------------------------------------------------------------------------|

e|---------------------------------------------------------------------------|
B|-6-5-6-5-6-8-6-5-3---------------------------------------------------------|
G|---------------------------------------------------------------------------|
D|---------------------------------------------------------------------------|
A|---------------------------------------------------------------------------|
E|---------------------------------------------------------------------------|

Outro,

Guitar 1 play the intro again
Guitar 2 crack off the folowing chords a combination of ringing and strumming

e|---------------------------------------------------------------------------|
B|---------------------------------------------------------------------------|
G|-10------9------10------3--------------------------------------------------|
D|--x------x-------x------3--------------------------------------------------|
A|--8------7-------8------1--------------------------------------------------|
E|---------------------------------------------------------------------------|



Comments about this tab

No comments/corrections found. Add your own



2005 ZMG, Inc.- All Right Reserved - Privacy Statement