Rockin Tabs Home

 :: Home > Tabs > A > Ataris, The > All You Can Ever Learn is What You Already Know

The Ataris - All You Can Ever Learn is What You Already Know


This tab has not yet been rated for accuracy.Sorry, but you must be logged in to rate this tab so we can tell which songs you've already voted on, which will help prevent cheating.
Click here to log-in, or you can click here to register.
(Registration is free)


Click here for a plain text version of this song (for better printing)

Add this tab to your list of favorite tabs




#----------------------------------PLEASE NOTE---------------------------------#
#This file is the author's own work and represents their interpretation of the #
#song. You may only use this file for private study, scholarship, or research. #
#------------------------------------------------------------------------------#


The Ataris
All You Can Ever Learn is What You Already Know Guitar Tab
from the Album "So Long, Astoria"
 
 
Intro: 2x
 
guitar 1:
(2 counts each chord written)
e|----------------------------------------|    |------------------------|
B|----------------------------------------|    |------------------------|
G|--7--------7----------------------------|    |------------------------|
D|--7--------7----------4-------5---------|    |--2----2----5-----7-----|
A|--5--------5----------4-------5---------|    |--2----2----5-----7-----|
E|----------------------2-------3---------|    |--0----0----3-----5-----|
 
guitar 2:
e|--9----9----10----9------9----12----10--|    |--9----9----10----9-----|
B|----10---10---(10)----10---10---(10)----|    |----10---10----10---10--|
G|----------------------------------------|    |------------------------|
D|----------------------------------------|    |------------------------|
A|----------------------------------------|    |------------------------|
E|----------------------------------------|    |------------------------|
 
 {--------------3-times-------------------}    {----4th-time-(once)-----}
 
Verse:
 
guitar 1:
e|-------------------------------------------------------|
B|-------------------------------------------------------|
G|--7~-------------4~------------------------------------|
D|--7~-------------4~---------5~-------------7~----------|
A|--5~-------------2~---------5~-------------7~----------|
E|----------------------------3~-------------5~----------|
 
      is this.. intended... smokestacks... beauty... facto-
 
Prechorus:
 
guitar 1 (palm muted):
e|---------------------------------------------------------------|
B|---------------------------------------------------------------|
G|--7---------------4-------7------------------------------------|
D|--7-------4-------4-------7-------5------5--------7------7-----|
A|--5-------4-------2-------5-------5------5--------7------7-----|
E|----------2-----------------------3------3--------5------5-----|
 {-------------------palm muted--------------------}
 
...ry   ...lights.. on...  out... used..  be...    pink.. middle...
 
guitar 2:
e|---------------------------------------------------------------|
B|---------------------------------------------------------------|
G|--7---7---6---6---7---7---9---9---7---7---7---7----------------|
D|----7---7---7---7---7---7---7---7---7---7---7---7-14--------15-|
A|---------------------------------------------------x---------x-|
E|--------------------------------------------------12--------13-|
 
Chorus:
 
guitar 1:
e|----------------------------------------------------------|
B|----------------------------------------------------------|
G|--4------7--------------------4------7--------------------|
D|--4------7------5------5------4------7------5------5------|
A|--2------5------5------5------2------5------5------5------|
E|----------------3------3--------------------3------3------|
 
     I'm trying  to  believe in you   sat.. shattered dreams are blocking
out my
 
guitar 2:
e|----------------------------------------------------------|
B|----------------------------------------------------------|
G|-11------14----12--11--9--12-11------14-----12--11--9--7--|
D|--x-------x-----x---x--x---x--x-------x------x---x--x--x--|
A|--9------12----10---9--7--10--9------12-----10---9--7--5--|
E|----------------------------------------------------------|
 
Bridge:
 
guitar 1:
e|----------------------------------------------------------|
B|----------------------------------------------------------|
G|----------------------------------------------------------|
D|--2~-------------7~-----5--4--2~-----------7--------------|
A|--2~-------------7~-----5--4--2~-----------7--------------|
E|--0~-------------5~-----3--2--0~-----------5--------------|
 
...view     ...forget...     ...are   cause nothing really matters when
we're gone
guitar 2:
e|----------------------------------------------------------|
B|----------------------------------------------------------|
G|--9--------------------12-11--9---------------------------|
D|--x---------------------x--x--x---------------------------|
A|--7--------------------10--9--7----------------pickslide--|
E|----------------------------------------------------------|
 
repeat Intro 1x.
 
repeat Verse, this time both guitars palm muted, first chord is played
like this:
e|-----------|
B|-----------|
G|--5---5----|  4 times, then chords as in 1st verse
D|--5-5-5-5--|
A|-----------|
E|-----------|
 
Repeat Prechorus
Repeat Chorus
 
2nd Bridge:
 
guitar 1:
e|-----------------------------------------------------------|
B|-----------------------------------------------------------|
G|-----------------------------------------------------------|
D|------2~-------------7~-----5--4--2~-----------7-----------|
A|------2~-------------7~-----5--4--2~-----------7-----------|
E|------0~-------------5~-----3--2--0~-----------5-----------|
 
sincerity       ...forget... really are   cause nothing really matters
when we're
 
guitar 2:
e|-----------------------------------------------------------|
B|-----------------------------------------------------------|
G|------9--------------------12-11--9------------9----11--12-|
D|------x---------------------x--x--x------------x-----x---x-|
A|------7--------------------10--9--7------------7-----9--10-|
E|-----------------------------------------------------------|
 
Interlude:
 
guitar 1: 2x
e|-----------------------------------------|
B|-----------------------------------------|
G|--4---------7----------------------------|
D|--4---------7-------5--------5-----------|
A|--2---------5-------5--------5-----------|
E|--------------------3--------3-----------|
     
           saddened..traintracks...
   young boy         nothing but...
 
guitar 2:
e|-----------------------------------------|
B|--7---7---7/9---7---8---7---5---8--------|
G|----7---7-----7---7---7---7---7---7------|
D|-----------------------------------------|
A|-----------------------------------------|
E|-----------------------------------------|
 
e|-----------------------------------------|
B|--7---7---5/7---7---8---7---5---3---5~---|
G|----7---7-----7---7---7------------------|
D|-----------------------------------------|
A|-----------------------------------------|
E|-----------------------------------------|
 
repeat Bridge
 
Outro:
both guitars same as chorus.
end on B5



Comments about this tab

No comments/corrections found. Add your own



2005 ZMG, Inc.- All Right Reserved - Privacy Statement