Rockin Tabs Home

 :: Home > Tabs > A > Alien Ant Farm > Smooth Criminal

Alien Ant Farm - Smooth Criminal


This tab has not yet been rated for accuracy.Sorry, but you must be logged in to rate this tab so we can tell which songs you've already voted on, which will help prevent cheating.
Click here to log-in, or you can click here to register.
(Registration is free)


Click here for a plain text version of this song (for better printing)

Add this tab to your list of favorite tabs




#----------------------------------PLEASE NOTE---------------------------------#
#This file is the author's own work and represents their interpretation of the #
#song. You may only use this file for private study, scholarship, or research. #
#------------------------------------------------------------------------------#


Smooth Criminal
by Alien Ant Farm
(origanally by Michael Jackson)  
from their album ANThology

                       
            VERSE                                   BRIDGE
E|-5-5-5-5--7-7-7-7--8-8-8-8------7--3-------|-5---3---5-------
A|-7-7-7-7--9-9-9-9--10-10-10-10--9--5-------|-7---5---7---
D|------------------------------------------------------|--------
G|------------------------------------------------------|-------   (Let notes 
B|------------------------------------------------------|---------  ring)
E|------------------------------------------------------|---------


               CHORUS
E|-5-5-5-5--3-3-3-3--1-1-1-1--3-3-3-3--|
A|-7-7-7-7--5-5-5-5--3-3-3-3--5-5-5-5--|
D|-------------------------------------------------|
G|-------------------------------------------------|
B|-------------------------------------------------|
E|-------------------------------------------------|



Comments about this tab

No comments/corrections found. Add your own



2005 ZMG, Inc.- All Right Reserved - Privacy Statement