Rockin Tabs Home

 :: Home > Tabs > B > Blink-182 > Dammit

Blink-182 - Dammit


This tab has been rated a 5.00 out of 5 for accuracy.
(1 vote)
Sorry, but you must be logged in to rate this tab so we can tell which songs you've already voted on, which will help prevent cheating.
Click here to log-in, or you can click here to register.
(Registration is free)


Click here for a plain text version of this song (for better printing)

Add this tab to your list of favorite tabs




#----------------------------------PLEASE NOTE---------------------------------#
#This file is the author's own work and represents their interpretation of the #
#song. You may only use this file for private study, scholarship, or research. #
#------------------------------------------------------------------------------#


Blink 182
Dammit

Intro

e-------------------------------------------------------
B-------------------------------------------------------
G-------------------------------------------------------
D-----0-0-2-------0-0-2-------0-0-2-------2-2-0---------
A-3-3---------------------0-0---------------------------
E-------------3-3---------------------1-1---------------

C            G          A              F
          It's alright to tell me what you think about me
           C          G         A           F
          I won't try to argue, or hold it against you
           C           G             A             F
          I know that you're leavin, you must have your reasons
           C         G           A            F
          The season is callin, your pictures are fallin down

     >>Play Intro Twice
           C             G         A            F
          The steps that I retrace the sad look on your face
           C           G              A           F
          The timing, and structure, did you hear he f***ed her
           C          G            A            F
          A day late, a buck short I'm writing the report
          C           G           A           F
          I'm losing, and faling when I move I'm flailing now

         C                         G                    A
          And it's happened once again, I'll turn to a friend
                             F
          Someone that understands, sees through the master plan
         C                 G                                 A
          But everybody's gone, and I've been there for too long
                              F
          To face this on my own, well I guess this is growing up

     >>Play Intro Twice
         C          G            A            F
          And maybe I'll see you at a movie sneak preview
          c            G           A          F
          You show up, and walk by on the arm of that guy
          C               G               A             F
          And I'll smile, and you'll wave we'll pretend it's ok
          C               G             A             F
          This showrave, it won't last when he's gone I won't come back

           C                       G                      A
          And it'll happen once again, you'll turn to a friend
                           F
          Someone that understand, sees through the master plan
          C                G                                   A
          But everybody's gone, and you've been there for too long
                                F
          To face this on your own well I guess this is growing up

e||----------------------------------------------------------||
b||-5~----------3~-5---------5~---------3~-5~----3~-5~-------||
g||----5~-------------5~~~~-----5~------------3--------3~----||
d||-------5~~~~--------------------5~~~----------------------||
a||----------------------------------------------------------||
e||----------------------------------------------------------||

e||----------------------------------------------------------||
b||-5~----------3~-5---------5~---------3~-5~----3~-5~-------||
g||----5~-------------5~~~~-----5~------------3--------3~----||
d||-------5~~~~--------------------5~~~----------------------||
a||----------------------------------------------------------||
e||----------------------------------------------------------||

Repeat Intro 4x times while singing i guess 
this is growing up.



Comments about this tab

No comments/corrections found. Add your own



2005 ZMG, Inc.- All Right Reserved - Privacy Statement