Rockin Tabs Home

 :: Home > Tabs > T > Thursday > For The Workforce, Drowning

Thursday - For The Workforce, Drowning


This tab has not yet been rated for accuracy.Sorry, but you must be logged in to rate this tab so we can tell which songs you've already voted on, which will help prevent cheating.
Click here to log-in, or you can click here to register.
(Registration is free)


Click here for a plain text version of this song (for better printing)

Add this tab to your list of favorite tabs




#----------------------------------PLEASE NOTE---------------------------------#
#This file is the author's own work and represents their interpretation of the #
#song. You may only use this file for private study, scholarship, or research. #
#------------------------------------------------------------------------------#


For the Workforce, Drowning
Thursday

DROP D TUNING. Don't forget.
 

GTR 1 (left)
e|---------------------------------------------------|
B|-3333---------3333---------3333---------3333-------|
G|-2222---------2222---------2222---------2222-------|
D|-0000-0-0-0---0000-0-0-0---0000-0-0-0---0000-0-0-0-|
A|-0000-0-0-0---0000-0-0-0---0000-0-0-0---0000-0-0-0-|
D|-0000-0-0-0---0000-0-0-0---0000-0-0-0---0000-0-0-0-|

4x
|---------------------------------------------|
|-3----------10101010101010101010101010101010-|
|-2----------10101010101010101010101010101010-|
|-0-----------8-8-8-8-8-8-8-8-8-8-8-8-8-8-8-8-|
|-0-----------8-8-8-8-8-8-8-8-8-8-8-8-8-8-8-8-|
|-0-----------8-8-8-8-8-8-8-8-8-8-8-8-8-8-8-8-|


|-----------------------------------------------|
|-3333---------3333-----------------------------|
|-2222---------2222--------10-9-10-9-10-9-15-14-|
|-0000-0-0-0---0000-0-0-0-----------------------|
|-0000-0-0-0---0000-0-0-0---8-7--8-7--8-7-13-12-|
|-0000-0-0-0---0000-0-0-0-----------------------|


|-----------------------------------------------|
|-3333---------3333-----------------------------|
|-2222---------2222--------10-9-10-9-10-9-12-12-|
|-0000-0-0-0---0000-0-0-0-----------------------|
|-0000-0-0-0---0000-0-0-0---8-7--8-7--8-7-10-10-|
|-0000-0-0-0---0000-0-0-0-----------------------|

3x
|-------------------------------------------------|
|-33333333-----------1010101010101010101010101010-|
|-22222222-7-14-12-9-1010101010101010101010101010-|
|-00000000------------8-8-8-8-8-8-8-8-8-8-8-8-8-8-|
|-00000000-5-12-10-7--8-8-8-8-8-8-8-8-8-8-8-8-8-8-|
|-00000000------------8-8-8-8-8-8-8-8-8-8-8-8-8-8-|


|--------------------------------------------------------|
|-33333333------------------1010101010101010101010101010-|
|-22222222-7-14-12-12-15-14-1010101010101010101010101010-|
|-00000000-------------------8-8-8-8-8-8-8-8-8-8-8-8-8-8-|
|-00000000-5-12-10-10-13-12--8-8-8-8-8-8-8-8-8-8-8-8-8-8-|
|-00000000-------------------8-8-8-8-8-8-8-8-8-8-8-8-8-8-|


|--------------------------------------------------------------|
|--------------------------------------------------------------|
|-15151515151515151717171717171717-12-12-14-14-15-15--15/17/19-|
|--------------------------------------------------------------|
|-13131313131313131515151515151515-10-10-12-12-13-13--13/15/17-|
|--------------------------------------------------------------|


|-----------------------------------------------|
|-3333---------3333-----------------------------|
|-2222---------2222--------10-9-10-9-10-9-15-14-|
|-0000-0-0-0---0000-0-0-0-----------------------|
|-0000-0-0-0---0000-0-0-0---8-7--8-7--8-7-13-12-|
|-0000-0-0-0---0000-0-0-0-----------------------|


|-----------------------------------------------|
|-3333---------3333-----------------------------|
|-2222---------2222--------10-9-10-9-10-9-12-12-|
|-0000-0-0-0---0000-0-0-0-----------------------|
|-0000-0-0-0---0000-0-0-0---8-7--8-7--8-7-10-10-|
|-0000-0-0-0---0000-0-0-0-----------------------|


|------------------------------------------------------------|
|-33333333---------------------------------------------------|
|-22222222---------------------------------------------------|
|-00000000-0-0-0-0-0-0-0-0-0-0-0-0-0-0-0-0-0-0-0-0-0-0-0-0-0~|
|-00000000-0-0-0-0-0-0-0-0-0-0-0-0-0-0-0-0-0-0-0-0-0-0-0-0-0~|
|-00000000-0-0-0-0-0-0-0-0-0-0-0-0-0-0-0-0-0-0-0-0-0-0-0-0-0~|



8x
|----------------------------------|
|-11-11-11-13-12-13p12-11h12h11----|
|-------------------------------12-|
|----------------------------------|
|----------------------------------|
|----------------------------------|
   then this riff slowly fades in


2x
|-131313131313-13121212121212-12101010101010----------------|
|-101010101010-10101010101010-11111111111111-10101013131313-|
|-101010101010-10101010101010-10101010101010-10101010101010-|
|-----------------------------------------------------------|
|-----------------------------------------------------------|
|-----------------------------------------------------------|

2x
|-------------------------------|
|-------------------------------|
|-10101010-9999-----------------|
|---------------0----1010101010-|
|--9-9-9-9-7777-0----1010101010-|
|---------------0----1010101010-|


|---------------------------------------------------------------------------|
|---------------------------------------------------------------------------|
|-12/14-14-14-14\12-12-12-12/-14-14-14-14\12-12-12-10-10-10-10-10-10-10-10--|
|---------------------------------------------------------------------------|
|-10/12-12-12-12\10-10-10-10/-12-12-12-12\10-10-10--8--8--8--8--8--8--8--8--|
|---------------------------------------------------------------------------|


|----------------------------------------------------------|
|----------------------------------------------------------|
|-12/14-14-14-14-15-15-14-14-14-14-10-10-10-10-10-10-10-10-|
|----------------------------------------------------------|
|-10/12-12-12-12-13-13-12-12-12-12--8--8--8--8--8--8--8--8-|
|----------------------------------------------------------|


|1010101010101212121212121313131313131010101010101010101010101212121212121313]
|1313131313131313131313131313131313131010101010101313131313131313131313131313]
|1010101010101010101010101010101010101010101010101010101010101010101010101010]
|----------------------------------------------------------------------------]
|----------------------------------------------------------------------------]
|----------------------------------------------------------------------------]

-13131313-----|
-13131313-----|
-10101010-----|
-----------10~|
-----------10~|
-----------10~|


|---------------------------------------------------|
|-3333---------3333---------3333---------3333-------|
|-2222---------2222---------2222---------2222-------|
|-0000-0-0-0---0000-0-0-0---0000-0-0-0---0000-0-0-0-|
|-0000-0-0-0---0000-0-0-0---0000-0-0-0---0000-0-0-0-|
|-0000-0-0-0---0000-0-0-0---0000-0-0-0---0000-0-0-0-|


|--------------|
|--------------|
|-7-9-10-------|
|--------0-0-0-|
|-5-7--8-0-0-0-|
|--------0-0-0-|



GTR 2 (right)
|---------------------------------------------------|
|-3333---------3333---------3333---------3333-------|
|-2222---------2222---------2222---------2222-------|
|-0000-0-0-0---0000-0-0-0---0000-0-0-0---0000-0-0-0-|
|-0000-0-0-0---0000-0-0-0---0000-0-0-0---0000-0-0-0-|
|-0000-0-0-0---0000-0-0-0---0000-0-0-0---0000-0-0-0-|

4x
|------------------------------------------------|
|-3-----------------1010101010101010101010101010-|
|-2---------7-7-7-7-1010101010101010101010101010-|
|-0------------------8-8-8-8-8-8-8-8-8-8-8-8-8-8-|
|-0---------5-5-5-5--8-8-8-8-8-8-8-8-8-8-8-8-8-8-|
|-0------------------8-8-8-8-8-8-8-8-8-8-8-8-8-8-|


|----------------------------------------------|
|-3333---------3333----------------------------|
|-2222---------2222----------------------------|
|-0000-0-0-0---0000-0-0-0--8-8-8-8-10-10-10-10-|
|-0000-0-0-0---0000-0-0-0--8-8-8-8-10-10-10-10-|
|-0000-0-0-0---0000-0-0-0--8-8-8-8-10-10-10-10-|


|------------------------------------------|
|-3333---------3333------------------------|
|-2222---------2222------------------------|
|-0000-0-0-0---0000-0-0-0--8-8-8-8-7-7-7-7-|
|-0000-0-0-0---0000-0-0-0--8-8-8-8-7-7-7-7-|
|-0000-0-0-0---0000-0-0-0--8-8-8-8-7-7-7-7-|

4x
|---------12-10------------12-10----------------------------|
|----1010-------10----1010-------10-------------------------|
|-77---------------77---------------10-10-10-10-10-10-10-10-|
|-----------------------------------------------------------|
|------------------------------------8--8--8--8--8--8--8--8-|
|-----------------------------------------------------------|


|-------------------------------------------------------|
|-------------------------------------------------------|
|-1212121212121212-19191919-21212121-19191919--15/17/19-|
|-------------------------------------------------------|
|-1010101010101010-17171717-19191919-17171717--13/15/17-|
|-------------------------------------------------------|


|----------------------------------------------|
|-3333---------3333----------------------------|
|-2222---------2222----------------------------|
|-0000-0-0-0---0000-0-0-0--8-8-8-8-10-10-10-10-|
|-0000-0-0-0---0000-0-0-0--8-8-8-8-10-10-10-10-|
|-0000-0-0-0---0000-0-0-0--8-8-8-8-10-10-10-10-|


|------------------------------------------|
|-3333---------3333------------------------|
|-2222---------2222------------------------|
|-0000-0-0-0---0000-0-0-0--8-8-8-8-7-7-7-7-|
|-0000-0-0-0---0000-0-0-0--8-8-8-8-7-7-7-7-|
|-0000-0-0-0---0000-0-0-0--8-8-8-8-7-7-7-7-|


|------------------------------------------------------------|
|-33333333---------------------------------------------------|
|-22222222---------------------------------------------------|
|-00000000-0-0-0-0-0-0-0-0-0-0-0-0-0-0-0-0-0-0-0-0-0-0-0-0-0~|
|-00000000-0-0-0-0-0-0-0-0-0-0-0-0-0-0-0-0-0-0-0-0-0-0-0-0-0~|
|-00000000-0-0-0-0-0-0-0-0-0-0-0-0-0-0-0-0-0-0-0-0-0-0-0-0-0~|

4x 
|-101010101010-121212121212-101010101010-101013131313-|
|-101010101010-111111111111-111111111111-111111111111-|
|-101010101010-101010101010-101010101010-101010101010-|
|-----------------------------------------------------|
|-----------------------------------------------------|
|-----------------------------------------------------|
      this riff fades in


2x
|-----------------------------|
|-----------------------------|
|-----------------------------|
|-8888-7777-0----101010101010-|
|-8888-7777-0----101010101010-|
|-8888-7777-0----101010101010-|

3x
|-------------------------------------|
|-------------------------------------|
|-------------------------------------|
|-8-8-8-8-7-7-7-7-0-0-0-0-10-10-10-10-|
|-8-8-8-8-7-7-7-7-0-0-0-0-10-10-10-10-|
|-8-8-8-8-7-7-7-7-0-0-0-0-10-10-10-10-|


|-----------------------------|
|-----------------------------|
|-----------------------------|
|-8-8-8-8-7-7-7-7-0-0-0-0-10~-|
|-8-8-8-8-7-7-7-7-0-0-0-0-10~-|
|-8-8-8-8-7-7-7-7-0-0-0-0-10~-|


|---------------------------------------------------|
|-3333---------3333---------3333---------3333-------|
|-2222---------2222---------2222---------2222-------|
|-0000-0-0-0---0000-0-0-0---0000-0-0-0---0000-0-0-0-|
|-0000-0-0-0---0000-0-0-0---0000-0-0-0---0000-0-0-0-|
|-0000-0-0-0---0000-0-0-0---0000-0-0-0---0000-0-0-0-|



|----------------------------|
|-10101010101010101010-------|
|-10101010101010101010-------|
|--8-8-8-8-8-8-8-8-8-8-0-0-0-|
|--8-8-8-8-8-8-8-8-8-8-0-0-0-|
|--8-8-8-8-8-8-8-8-8-8-0-0-0-|


Hope it's right.



Comments about this tab

No comments/corrections found. Add your own



2005 ZMG, Inc.- All Right Reserved - Privacy Statement