Rockin Tabs Home

 :: Home > Tabs > C > Crow, Sheryl > Soak Up the Sun

Sheryl Crow - Soak Up the Sun


This tab has not yet been rated for accuracy.Sorry, but you must be logged in to rate this tab so we can tell which songs you've already voted on, which will help prevent cheating.
Click here to log-in, or you can click here to register.
(Registration is free)


Click here for a plain text version of this song (for better printing)

Add this tab to your list of favorite tabs




#----------------------------------PLEASE NOTE---------------------------------#
#This file is the author's own work and represents their interpretation of the #
#song. You may only use this file for private study, scholarship, or research. #
#------------------------------------------------------------------------------#


Artist-Sheryl Crow 
Song- Soak up the sun
Tabbed by- Katherine .M.

This is a really good tune not very hard to play either… I think that this
sounds okay some bits you’ll have to figure out yourself… here goes….Enjoy..!

Intro (riff 1)-
E------------------------------------------------------------------------------
B---------------------7--------------------------------------------------------
G------------------------7----------------------------------------------------
D-----------9-7-9-----------------9----9------7----7------------------------ x4
A----------------------------------9-----9-----7-----7-------------------------
E----------------------------------7-----7-----5-----5-------------------------

Verse 1-

E----------------------------------------------------------------------------
B----------------------------------------------------------------------------
G---------------------------------------------------------------------------
D-----------------------------9-----9---------7-----7--------------------- x4
A----------9-7-9-------------9------9---------7-----7--------------------
E-------------------------------7------7---------5-----5--------------------

Then play (riff 1).

Then play verse 1 ( x4)

Chorus- (The E chord is on the 7th fret.)


E------------------------
B------------------------
G--------9---------------
D--------9---------------
A-------7----------------
E------------------------


          E                        Bm                             F# G# A C#  Bm
I’m gonna soak up the sun, I gonna tell everyone to lighten up,

                                         E                       Bm
I’m gonna tell ‘em that I got no one to blame, 

                             F#    G#   A C#    Bm
Every time I feel lame I’m looking up,

(Play Riff 1)                                      
I’m gonna soak up the sun,


I’m gonna soak up the sun…

Verse 2-same as verse 1 


Bridge-(If you listen to the song then you’ll know where you strum these chords)

E D# D C# 
E D# G A
GA

Chorus x2

Then slow this down

        E                           Bm                    F#  G# A    C#    Bm  
Im gonna soak up the sun, I got my 45 on so I can rock on

--And that’s pretty much it ….have fun  playing it!



Comments about this tab

No comments/corrections found. Add your own



2005 ZMG, Inc.- All Right Reserved - Privacy Statement