Rockin Tabs Home

 :: Home > Tabs > C > Counting Crows > Accidentally in Love

Counting Crows - Accidentally in Love


This tab has been rated a 5.00 out of 5 for accuracy.
(1 vote)
Sorry, but you must be logged in to rate this tab so we can tell which songs you've already voted on, which will help prevent cheating.
Click here to log-in, or you can click here to register.
(Registration is free)


Click here for a plain text version of this song (for better printing)

Add this tab to your list of favorite tabs




#----------------------------------PLEASE NOTE---------------------------------#
#This file is the author's own work and represents their interpretation of the #
#song. You may only use this file for private study, scholarship, or research. #
#------------------------------------------------------------------------------#


Accidentally In Love- Counting Crows
Shrek 2 Soundtrack
Tabbed by Bj Grace
bjthedj85@hotmail.com
-----------------------------------------
I play this in barre chords, *the last A chord in the chorus i play
as a 022200 open rather than 556775, if that makes sense. and play the B chord
on the 7th fret.  send me a message if you got any questions and have a great
time with this song it rocks!


intro
|---7/5--5/3--3/5----7/5--5/3--3/5------7/5--5/3--3/5----5--7--5--3--3--3---|
|---5/3--3/1--1/3----5/3--3/1--1/3------5/3--3/1--1/3----3--5--3--1--1--1---|
|---------------------------------------------------------------------------|
|---------------------------------------------------------------------------|
|---------------------------------------------------------------------------|
|---------------------------------------------------------------------------|

									  
|---7/5--5/3--3/5----7/5--5/3--3/5------7/5--5/3--3/5--5/3--3/2--2r0-0h2--3----|
|---5/3--3/1--1/3----5/3--3/1--1/3------5/3--3/1--1/3--3/1--1/0--0--------5----|
|-------------------------------------------------------------------------5----|
|-------------------------------------------------------------------------5----|
|-------------------------------------------------------------------------3----|
|-------------------------------------------------------------------------3----|


G			C
So she said what's the problem baby

G			   C
What's the problem I don't know

		  B		 
Well maybe I'm in love (love) 

		A
Think about it every time
I think about it

C				G
Can't stop thinking 'bout it

How much longer will it take to cure this
Just to cure it cause I can't ignore it if it's love (love) 
Makes me wanna turn around and face me but I don't know nothing 'bout love 

G	A
Come on, come on 

C		D
Turn a little faster

G	A
Come on, come on 

C			D
The world will follow after

G	A
Come on, come on 

C		  D      G     A*     C
Cause everybody's after loooooove

So I said I'm a snowball running 
Running down into the spring that's coming all this love 
Melting under blue skies 
Belting out sunlight 
Shimmering love 

Well baby I surrender 
To the strawberry ice cream
Never ever ever end of all this love
Well I didn't mean to do it 
But there's no escaping your love


B		A
These lines of lightning 

	   G
Mean we're never alone, 

	      G  A
Never alone, no, no 


Come on, Come on
Move a little closer 
Come on, Come on
I want to hear you whisper
Come on, Come on 
Settle down inside my love

Come on, come on 
Jump a little higher
Come on, come on
If you feel a little lighter
Come on, come on 
We were once
Upon a time in love 

We're accidentally in love 
Accidentally in love [x7]

Accidentally 

I'm In Love, I'm in Love, 
I'm in Love, I'm in Love, 
I'm in Love, I'm in Love,
Accidentally [x2]

Come on, come on
Spin a little tighter
Come on, come on 
And the world's a little brighter
Come on, come on 
Just get yourself inside her 

Love ...I'm in love



Comments about this tab

No comments/corrections found. Add your own



2005 ZMG, Inc.- All Right Reserved - Privacy Statement