Rockin Tabs Home

 :: Home > Tabs > S > Simpson, Ashlee > Pieces of Me

Ashlee Simpson - Pieces of Me


This tab has not yet been rated for accuracy.Sorry, but you must be logged in to rate this tab so we can tell which songs you've already voted on, which will help prevent cheating.
Click here to log-in, or you can click here to register.
(Registration is free)


Click here for a plain text version of this song (for better printing)

Add this tab to your list of favorite tabs




#----------------------------------PLEASE NOTE---------------------------------#
#This file is the author's own work and represents their interpretation of the #
#song. You may only use this file for private study, scholarship, or research. #
#------------------------------------------------------------------------------#


Ashlee Simpson
Pieces of Me
Off the CD “Autobiography”

I’m pretty sure this is right my band covers this song and it sounds pretty
good.  You just got to play around with it a little bit but other then that
it’s awesome.  It’s a wicked good song...props to Ashlee and her crew

Intro/Verse 

E--------------------------0-----0------|
B--------------------------0-----0------|
G-------6-----6h7-6--------6-----6h7-6--|
D-------0-----0------------x-----x------|
A-------x-----x-------7-7--7---7-7------|
E--7-7--7---7-7-------------------------|   x2

E--------------------------0-----0------|
B-------3-----3------------0-----0------|
G-------2-----3------------2-----2------|
D-------0-----0------------2-----2------|
A-------x-----x-------0-0--0---0-0------|
E--3-3--3---3-3-------------------------|  
    then play the whole thing twice

Pre-Chorus

E--x---x---x---x---x-----|
B--3---3---3---1---2-----|
G--4---0---4---0—--2-----|
D--4---0---4---2---2-----|
A--2---x---2---3---0-----|
E------3-------x---------|

Chorus
E--x---x---x---0---|
B--3---3---3---0---|
G--2---0---0---2---|
D--0---0---2---2---|
A--x---x---2---0---|
E--x---3---0---x---|     x2
You have to find the time to change 
at first it was hard for me to figure it out

E--x---|
B--3---|
G--2---|
D--0---|
A--x---|
E--x---|
That’s when she’s like “pieces pieces pieces of me...” 
just play that chord over and over

Verse 

Pre Chorus

Chorus

Bridge

E--x---x---x---x---0---x---0---|
B--3---3---3---3---3---3---0---|
G--2---0---2---0---0---2---2---|
D--0---0---0---0---2---0---2---|
A--x---x---x---x---2---x---0---|
E--x---3---x---3---0---2---x---|

Verse

Chorus x4

Outro

Play the very intro then...
E---------------------0---|
B---------------------0---|
G-------6-----6h7-6---2---|
D-------0-----0-------0---|
A-------x-----x-------x---|
E--7-7--7---7-7-------3---|

Ok this is my 1st tab I’ve ever submitted 
I hope you like it...if anything’s wrong 
feel free to e mail me with the changes at 
lilbiggs770@hotmail.com...make sure you rate me


~kevv



Comments about this tab

No comments/corrections found. Add your own



2005 ZMG, Inc.- All Right Reserved - Privacy Statement