Rockin Tabs Home

 :: Home > Tabs > L > Linkin Park > Lying From You

Linkin Park - Lying From You


This tab has not yet been rated for accuracy.Sorry, but you must be logged in to rate this tab so we can tell which songs you've already voted on, which will help prevent cheating.
Click here to log-in, or you can click here to register.
(Registration is free)


Click here for a plain text version of this song (for better printing)

Add this tab to your list of favorite tabs




#----------------------------------PLEASE NOTE---------------------------------#
#This file is the author's own work and represents their interpretation of the #
#song. You may only use this file for private study, scholarship, or research. #
#------------------------------------------------------------------------------#


Lying From You
Linkin Park

Submitted by GuiTarDudE89
Drop B tuning (B F# B E G# C#)
p=palm muting
>=slide

Intro                                                                       
1-------------------------------------------------------------------------------
2-------------------------------------------------------------------------------
3-------------------------------------------------------------------------------
4----2p-2p-2p-2p--2-4-3-2-5-4-3-2----2-4-3-2-5-4-3-2----2-4-3-2-5-4-3-2---------
5----2p-2p-2p-2p--2-4-3-2-5-4-3-2-1--2-4-3-2-5-4-3-2-1--2-4-3-2-5-4-3-2-1-------
6----2p-2p-2p-2p--2-4-3-2-5-4-3-2----2-4-3-2-5-4-3-2----2-4-3-2-5-4-3-2---------

1-------------------------------------------------------------------------------
2-------------------------------------------------------------------------------
3-------------------------------------------------------------------------------
4----2-4-3-2-5-4-x-x-x-x-------------------------------------------------------- 
5----2-4-3-2-5-4-x-x-x-x--------------------------------------------------------
6----2-4-3-2-5-4-x-x-x-x--------------------------------------------------------

Verse                                                                       
1-------------------------------------------------------------------------------
2-------------------------------------------------------------------------------
3-------------------------------------------------------------------------------
4----4-4----------------7-7-----2-2-2-2-----------------------------------------
5----4-4----------------7-7-----2-2-2-2-----------------------------------------
6----4-4----------------7-7-----2-2-2-2-----------------------------------------

1-------------------------------------------------------------------------------
2-------------------------------------------------------------------------------
3-------------------------------------------------------------------------------
4----4-4----------------7-7-----2-2-2-2-----------------------------------------
5----4-4----------------7-7-----2-2-2-2-----------------------------------------
6----4-4----------------7-7-----2-2-2-2-----------------------------------------

1-------------------------------------------------------------------------------
2-------------------------------------------------------------------------------
3-------------------------------------------------------------------------------
4----4-4----------------7-7-----2-2-2-2-----------------------------------------
5----4-4----------------7-7-----2-2-2-2-----------------------------------------
6----4-4----------------7-7-----2-2-2-2-----------------------------------------

1-------------------------------------------------------------------------------
2-------------------------------------------------------------------------------
3-------------------------------------------------------------------------------
4----4-4----------------7-7-7--7--9-9-9-9---------------------------------------
5----4-4----------------7-7-7--7--9-9-9-9---------------------------------------
6----4-4----------------7-7-7--7--9-9-9-9---------------------------------------

Chorus
1-------------------------------------------------------------------------------
2-------------------------------------------------------------------------------
3---------11->-13-13->-9-9->-11-11----------------------------------------------
4----4-4----------------------------9-9-9-9--2-2-2-2----------------------------
5----4-4---9->-11-11->-7-7->--9--9--9-9-9-9--2-2-2-2----------------------------
6----4-4----------------------------9-9-9-9--2-2-2-2----------------------------

1-------------------------------------------------------------------------------
2-------------------------------------------------------------------------------
3---------11->-13-13->-9-9->-11-11----------------------------------------------
4----0-0----------------------------9-9-9-9--2-2-2-2----------------------------
5----0-0---9->-11-11->-7-7->--9--9--9-9-9-9--2-2-2-2----------------------------
6----0-0----------------------------9-9-9-9--2-2-2-2----------------------------

1-------------------------------------------------------------------------------
2-------------------------------------------------------------------------------
3---------11->-13-13->-9-9->-11-11----------------------------------------------
4----4-4----------------------------9-9-9-9--2-2-2-2----------------------------
5----4-4---9->-11-11->-7-7->--9--9--9-9-9-9--2-2-2-2----------------------------
6----4-4----------------------------9-9-9-9--2-2-2-2----------------------------

1-------------------------------------------------------------------------------
2-------------------------------------------------------------------------------
3---------11->-13-13->-9-9->-11-11----------------------------------------------
4----0-0----------------------------9-9-9-9--2-2-2-2----------------------------
5----0-0---9->-11-11->-7-7->--9--9--9-9-9-9--2-2-2-2----------------------------
6----0-0----------------------------9-9-9-9--2-2-2-2----------------------------

(on last part of second and third choruses)
1-------------------------------------------------------------------------------
2-------------------------------------------------------------------------------
3-------------------------------------------------------------------------------
4----9-9-9-9-9-9-9-9--9-9-9-9--2-2-2p-2p-2--------------------------------------
5----9-9-9-9-9-9-9-9--9-9-9-9--2-2-2p-2p-2--------------------------------------
6----9-9-9-9-9-9-9-9--9-9-9-9--2-2-2p-2p-2--------------------------------------

verse

chorus

intro (without the palm muted second fret chord both times)

chorus



Comments about this tab

No comments/corrections found. Add your own



2005 ZMG, Inc.- All Right Reserved - Privacy Statement